Song name
# A B C D E F G H I J K L M N O P Q R S T U V W X Y Z

Tegan And Sara - Goodbye Goodbye tab

Standard Tuning

Mostly synth or keyboards written for guitar just for you, you lucky thing.
Hope it's good, and sorry if some of the lyrics are wrong


INTRO
e|--------------------------------|--------------------------------|
B|--11---9--11---9-------9-------9|--11---9--11---9-------9-------9|
G|------------------11------11----|------------------11------11----|
D|11--11--11--11--11--11--11--11--|11--11--11--11--11--11--11--11--|
A|--------------------------------|--------------------------------|
E|--------------------------------|--------------------------------|

VERSE
e|--------------------------------|--------------------------------|
B|-----7-----------7-7------------|-----4--------------------------|
G|-8-8-8-----------6-6-----------4|-4-4-4-----------6-6------------|
D|-8-8-------------4-4-----------4|-4-4-------------6-6------------|
A|-6-6---------------------------2|-2-2-------------4-4------------|
E|--------------------------------|--------------------------------|
Goodbye, I don't wanna feel the need to hear your voice

e|--------------------------------|--------------------------------|
B|-----7-----------7-7------------|-----4--------------------------|
G|-8-8-8-----------6-6-----------4|-4-4-4-----------6-6------------|
D|-8-8-------------4-4-----------4|-4-4-------------6-6------------|
A|-6-6---------------------------2|-2-2-------------4-4------------|
E|--------------------------------|--------------------------------|
Goodbye, I don't wanna feel the need to see your face

e|--------------------------------|--------------------------------|
B|--------------------------------|--------------------------------|
G|-----------------6-6-6-6-6-6-6-6|--------------------------------|
D|-8-8-8-8-8-8-8-8-4-4-4-4-4-4-4-4|-4-4-4-4-4-4-4-4-6-6-6-6-6-6-6-6|
A|-6-6-6-6-6-6-6-6----------------|-2-2-2-2-2-2-2-2-4-4-4-4-4-4-4-4|
E|--------------------------------|--------------------------------|
 PM. . . . . . . . . . . . . . . .| . . . . . . . . . . . . . . . .|
I can't live with all these things I would say

e|--------------------------------|--------------------------------|
B|--------------------------------|--------------------------------|
G|-----------------6-6-6-6-6-6-6-6|--------------------------------|
D|-8-8-8-8-8-8-8-8-4-4-4-4-4-4-4-4|-4-4-4-4-4-4-4-4-6---6---6---6--|
A|-6-6-6-6-6-6-6-6----------------|-2-2-2-2-2-2-2-2-4---4---4---4--|
E|--------------------------------|--------------------------------|
 PM. . . . . . . . . . . . . . . .| . . . . . . . .                |
I can't live with all these things that I say

CHORUS
[When played live, Sara just plays the first strum of each chord and holds it, but if 
played with only guitar, it could sound better like this]
e|--------------------------------|--------------------------------|
B|--------------------------------|----------------14--12--11---9--|
G|-4-4-4-4-4-4-4-4-6-6-6-6-6-6-6-6|-8-8-8-8-8-8-8-8-x---x---x---x--|
D|-4-4-4-4-4-4-4-4-6-6-6-6-6-6-6-6|-8-8-8-8-8-8-8-811---9---8---6--|
A|-2-2-2-2-2-2-2-2-4-4-4-4-4-4-4-4|-6-6-6-6-6-6-6-6----------------|
E|--------------------------------|--------------------------------|
Goodbye, goodbye, goodbye, goodbye like the first time

e|--------------------------------|--------------------------------|
B|--------------------------------|----------------14--16--11---9--|
G|-4-4-4-4-4-4-4-4-6-6-6-6-6-6-6-6|-8-8-8-8-8-8-8-8-x---x---x---x--|
D|-4-4-4-4-4-4-4-4-6-6-6-6-6-6-6-6|-8-8-8-8-8-8-8-811--13---8---6--|
A|-2-2-2-2-2-2-2-2-4-4-4-4-4-4-4-4|-6-6-6-6-6-6-6-6----------------|
E|--------------------------------|--------------------------------|
Goodbye, goodbye, goodbye, goodbye like the first time

e|--------------------------------|--------------------------------|
B|--------------------------------|--------------------------------|
G|-4-4-4-4-4-4-4-4-6-6-6-6-6-6-6-6|-8-8-8-8-8-8-8-8----------------|
D|-4-4-4-4-4-4-4-4-6-6-6-6-6-6-6-6|-8-8-8-8-8-8-8-8-4-4-4-4-4-4-4-4|
A|-2-2-2-2-2-2-2-2-4-4-4-4-4-4-4-4|-6-6-6-6-6-6-6-6-4-4-4-4-4-4-4-4|
E|--------------------------------|-----------------2-2-2-2-2-2-2-2|
You never really knew me, never ever, never ever saw me, saw me like they did

e|--------------------------------|--------------------------------|
B|--------------------------------|--------------------------------|
G|-4-4-4-4-4-4-4-4-6-6-6-6-6-6-6-6|-8-8-8-8-8-8-8-8----------------|
D|-4-4-4-4-4-4-4-4-6-6-6-6-6-6-6-6|-8-8-8-8-8-8-8-8-4-4-4-4-4-4-4-4|
A|-2-2-2-2-2-2-2-2-4-4-4-4-4-4-4-4|-6-6-6-6-6-6-6-6-4-4-4-4-4-4-4-4|
E|--------------------------------|-----------------2-2-2-2-2-2-2-2|
You never really loved me, never really, never really loved, loved me like they did

PRE-VERSE
e|--------------------------------|
B|--11---9--11---9-------9-------9|
G|------------------11------11----|
D|11--11--11--11--11--11--11--11--|
A|--------------------------------|
E|--------------------------------|

VERSE
e|--------------------------------|--------------------------------|
B|-----7-----------7-7------------|-----4--------------------------|
G|-8-8-8-----------6-6-----------4|-4-4-4-----------6-6------------|
D|-8-8-------------4-4-----------4|-4-4-------------6-6------------|
A|-6-6---------------------------2|-2-2-------------4-4------------|
E|--------------------------------|--------------------------------|
With some time, I might wanna see the way that you've changed

e|--------------------------------|--------------------------------|
B|-----7-----------7-7------------|-----4--------------------------|
G|-8-8-8-----------6-6-----------4|-4-4-4-----------6-6------------|
D|-8-8-------------4-4-----------4|-4-4-------------6-6------------|
A|-6-6---------------------------2|-2-2-------------4-4------------|
E|--------------------------------|--------------------------------|
With some time, I might wanna see how you've been, what you cannot blame

e|--------------------------------|--------------------------------|
B|--------------------------------|--------------------------------|
G|-----------------6-6-6-6-6-6-6-6|--------------------------------|
D|-8-8-8-8-8-8-8-8-4-4-4-4-4-4-4-4|-4-4-4-4-4-4-4-4-6-6-6-6-6-6-6-6|
A|-6-6-6-6-6-6-6-6----------------|-2-2-2-2-2-2-2-2-4-4-4-4-4-4-4-4|
E|--------------------------------|--------------------------------|
 PM. . . . . . . . . . . . . . . .| . . . . . . . . . . . . . . . .|
I can't stand it, all these things I forego

e|--------------------------------|--------------------------------|
B|--------------------------------|--------------------------------|
G|-----------------6-6-6-6-6-6-6-6|--------------------------------|
D|-8-8-8-8-8-8-8-8-4-4-4-4-4-4-4-4|-4-4-4-4-4-4-4-4-6---6---6---6--|
A|-6-6-6-6-6-6-6-6----------------|-2-2-2-2-2-2-2-2-4---4---4---4--|
E|--------------------------------|--------------------------------|
 PM. . . . . . . . . . . . . . . .| . . . . . . . .                |
I can't stand it, all these things I've let go

CHORUS
e|--------------------------------|--------------------------------|
B|--------------------------------|----------------14--12--11---9--|
G|-4-4-4-4-4-4-4-4-6-6-6-6-6-6-6-6|-8-8-8-8-8-8-8-8-x---x---x---x--|
D|-4-4-4-4-4-4-4-4-6-6-6-6-6-6-6-6|-8-8-8-8-8-8-8-811---9---8---6--|
A|-2-2-2-2-2-2-2-2-4-4-4-4-4-4-4-4|-6-6-6-6-6-6-6-6----------------|
E|--------------------------------|--------------------------------|
Goodbye, goodbye, goodbye, goodbye like the first time

e|--------------------------------|--------------------------------|
B|--------------------------------|----------------14--16--11---9--|
G|-4-4-4-4-4-4-4-4-6-6-6-6-6-6-6-6|-8-8-8-8-8-8-8-8-x---x---x---x--|
D|-4-4-4-4-4-4-4-4-6-6-6-6-6-6-6-6|-8-8-8-8-8-8-8-811--13---8---6--|
A|-2-2-2-2-2-2-2-2-4-4-4-4-4-4-4-4|-6-6-6-6-6-6-6-6----------------|
E|--------------------------------|--------------------------------|
Goodbye, goodbye, goodbye, goodbye like the first time

e|--------------------------------|--------------------------------|
B|--------------------------------|--------------------------------|
G|-4-4-4-4-4-4-4-4-6-6-6-6-6-6-6-6|-8-8-8-8-8-8-8-8----------------|
D|-4-4-4-4-4-4-4-4-6-6-6-6-6-6-6-6|-8-8-8-8-8-8-8-8-4-4-4-4-4-4-4-4|
A|-2-2-2-2-2-2-2-2-4-4-4-4-4-4-4-4|-6-6-6-6-6-6-6-6-4-4-4-4-4-4-4-4|
E|--------------------------------|-----------------2-2-2-2-2-2-2-2|
You never really knew me, never ever, never ever saw me, saw me like they did

e|--------------------------------|--------------------------------|
B|--------------------------------|--------------------------------|
G|-4-4-4-4-4-4-4-4-6-6-6-6-6-6-6-6|-8-8-8-8-8-8-8-8----------------|
D|-4-4-4-4-4-4-4-4-6-6-6-6-6-6-6-6|-8-8-8-8-8-8-8-8-4-4-4-4-4-4-4-4|
A|-2-2-2-2-2-2-2-2-4-4-4-4-4-4-4-4|-6-6-6-6-6-6-6-6-4-4-4-4-4-4-4-4|
E|--------------------------------|-----------------2-2-2-2-2-2-2-2|
You never really loved me, never really, never really loved, loved me like they did

BRIDGE
e|-2------------------------------|-4------------------------------|
B|-4------------------------------|-6------------------------------|
G|-4--Play up and down------------|-6--Play up and down------------|
D|-4------this chord--------------|-6----this one too--------------|
A|-2------------------------------|-4------------------------------|
E|--------------------------------|--------------------------------|
You could've told me goodbye

e|-2------------------------------|-4------------------------------|
B|-4------------------------------|-6------------------------------|
G|-4--Play up and down------------|-6------and---------------------|
D|-4------this chord as well------|-6----this one------------------|
A|-2------------------------------|-4------------------------------|
E|--------------------------------|--------------------------------|
You could've told me goodbye

e|-2------------------------------|-4------------------------------|
B|-4------------------------------|-6------------------------------|
G|-4--Play up and down chord------|-6--Play up and down chord------|
D|-4------------------------------|-6------------------------------|
A|-2------------------------------|-4------------------------------|
E|--------------------------------|--------------------------------|
You let me try knowing there was nothing I could do to change you.

e|-2------------------------------|-4------------------------------|
B|-4------------------------------|-6------------------------------|
G|-4--Play up and down chord------|-6--Play up and down chord------|
D|-4------------------------------|-6------------------------------|
A|-2------------------------------|-4------------------------------|
E|--------------------------------|--------------------------------|
You could've warned me knowing there was nothing I could do to change you

BREAK

e|-2~--------------4~-------------|-6~--------------9~-------------|
B|-4~--------------6~-------------|-7~-------------11~-------------|
G|-4~--------------6~-------------|-8~-------------11~-------------|
D|-4~--------------6~-------------|-8~-------------11~-------------|
A|-2~--------------4~-------------|-6~--------------9~-------------|
E|--------------------------------|--------------------------------|
You never really knew me, never ever, never ever saw me, saw me like they did

e|-2~--------------4~-------------|-6~--------------9~-------------|
B|-4~--------------6~-------------|-7~-------------11~-------------|
G|-4~--------------6~-------------|-8~-------------11~-------------|
D|-4~--------------6~-------------|-8~-------------11~-------------|
A|-2~--------------4~-------------|-6~--------------9~-------------|
E|--------------------------------|--------------------------------|
You never really loved me, never really, never really loved, loved me like they did

CHORUS
e|--------------------------------|--------------------------------|
B|--------------------------------|----------------14--12--11---9--|
G|-4-4-4-4-4-4-4-4-6-6-6-6-6-6-6-6|-8-8-8-8-8-8-8-8-x---x---x---x--|
D|-4-4-4-4-4-4-4-4-6-6-6-6-6-6-6-6|-8-8-8-8-8-8-8-811---9---8---6--|
A|-2-2-2-2-2-2-2-2-4-4-4-4-4-4-4-4|-6-6-6-6-6-6-6-6----------------|
E|--------------------------------|--------------------------------|
Goodbye, goodbye, goodbye, goodbye like the first time

e|--------------------------------|--------------------------------|
B|--------------------------------|----------------14--16--11---9--|
G|-4-4-4-4-4-4-4-4-6-6-6-6-6-6-6-6|-8-8-8-8-8-8-8-8-x---x---x---x--|
D|-4-4-4-4-4-4-4-4-6-6-6-6-6-6-6-6|-8-8-8-8-8-8-8-811--13---8---6--|
A|-2-2-2-2-2-2-2-2-4-4-4-4-4-4-4-4|-6-6-6-6-6-6-6-6----------------|
E|--------------------------------|--------------------------------|
Goodbye, goodbye, goodbye, goodbye like the first time

e|--------------------------------|--------------------------------|
B|--------------------------------|--------------------------------|
G|-4-4-4-4-4-4-4-4-6-6-6-6-6-6-6-6|-8-8-8-8-8-8-8-8----------------|
D|-4-4-4-4-4-4-4-4-6-6-6-6-6-6-6-6|-8-8-8-8-8-8-8-8-4-4-4-4-4-4-4-4|
A|-2-2-2-2-2-2-2-2-4-4-4-4-4-4-4-4|-6-6-6-6-6-6-6-6-4-4-4-4-4-4-4-4|
E|--------------------------------|-----------------2-2-2-2-2-2-2-2|
You never really knew me, never ever, never ever saw me, saw me like they did

e|--------------------------------|--------------------------------|
B|--------------------------------|--------------------------------|
G|-4-4-4-4-4-4-4-4-6-6-6-6-6-6-6-6|-8-8-8-8-8-8-8-8----------------|
D|-4-4-4-4-4-4-4-4-6-6-6-6-6-6-6-6|-8-8-8-8-8-8-8-8-4-4-4-4-4-4-4-4|
A|-2-2-2-2-2-2-2-2-4-4-4-4-4-4-4-4|-6-6-6-6-6-6-6-6-4-4-4-4-4-4-4-4|
E|--------------------------------|-----------------2-2-2-2-2-2-2-2|
You never really loved me, never really, never really loved, loved me like they did

OUTRO
e|--------------------------------|
B|--11---9--11---9-------9-------9|
G|------------------11------11----|
D|11--11--11--11--11--11--11--11--|
A|--------------------------------|
E|--------------------------------|
Tap to rate this tab
 
# A B C D E F G H I J K L M N O P Q R S T U V W X Y Z