Song name
# A B C D E F G H I J K L M N O P Q R S T U V W X Y Z

Tegan And Sara - I Cant Take It tab

SONG: I Cant Take It
ARTIST: Tegan And Sara
ALBUM: So Jealous
YEAR: 2004
TABBED BY: Maite Daz
rockmaite@hotmail.com

TUNING: Drop A to low G. No capo.

------------- ENJOY!!!!!!!!!!!!! :] -------------


INTRO / VERSE 1:

  So move                          Yeah, move
e --------0----------0---       e ----------0-----------0---|
B --------3----------3---       B ----------3-----------3---|
G --------0----------0--- (x2)  G ----------0-----------0---|  (x2)
D --------0----------0---       D ----------0-----------0---|
G --------0----------0---       G ----------0-----------0---|
E ---3-3-----3--3-3------       E ---3--0-0-----0--0-0------|


CHORUS:

Dont move so slow (x4)
e --------0----------0----------0----------0----------0---|
B --------0----------0----------0----------0----------0---|
G --------0----------0----------0----------0----------0---|
D ---9-9--9--9--7-7--7--7--5-5--5--5--5-5--5--5--5-5--5---|
G ---9-9--9--9--7-7--7--7--5-5--5--5--5-5--5--5--5-5--5---|
E --------------------------------------------------------|


VERSE 2: Idem VERSE 1


Repeat CHORUS


PRE-BRIDGE:

e ---0--0--0--0--0--0--0--0---|
B ---3--3--3--3--3--3--3--3---|
G ---2--2--2--2--2--2--2--2---|
D ---0--0--0--0--0--0--0--0---| (x4)
G ----------------------------|
E ----------------------------|


BRIDGE: (x2)

  I cant take it... (x4)
e ---------0---------0----------0----------0---|
B ---------3---------3----------3----------3---|
G ---------0---------0----------0----------0---|
D ---5-5------5--5-5-----5------0----------0---|
G ---5-5------5--5-5-----5------0----------0---|
E --------------------------3-3----3--3-3--3---|


I cant
      wo, wo,   wo, wo,    wo...  (x2)
e --------0----------0----------0----------0----------0---|
B --------0----------0----------0----------0----------0---|
G --------0----------0----------0----------0----------0---|
D ---9-9--9--9--7-7--7--7--5-5--5--5--5-5--5--5--5-5--5---|
G ---9-9--9--9--7-7--7--7--5-5--5--5--5-5--5--5--5-5--5---|
E --------------------------------------------------------|


------------- THE END. -------------
Tap to rate this tab
# A B C D E F G H I J K L M N O P Q R S T U V W X Y Z