Song name
# A B C D E F G H I J K L M N O P Q R S T U V W X Y Z

Tegan And Sara - You Wouldnt Like Me tab

I noticed there wasn't an actual tab for this song so i figured out the pitches from the
tab already on here. i'm pretty sure this is correct if not then it sounds almost perfect.

INTRO  (both guitars)
e|--------------|
b|--------------|
g|---7-7-x-x----|
d|---7-7-x-x----|
a|---5-5-x-x----|
E|--------------|  X4

VERSE 1

    (gtr 1)
e|--------------|
b|--------------|
g|---7-7-x-x----|
d|---7-7-x-x----|
a|---5-5-x-x----|
E|--------------| x4
 |
 |  (gtr 2)
e|--------------|
b|--------------|
g|---7-7-x-x----|
d|---7-7-x-x----|
a|---5-5-x-x----|
E|--------------| X4
There's a war inside of me do i

e|--------------|
b|--------------|
g|--------------|
d|---7-7-x-x----|
a|---7-7-x-x----|
E|---5-5-x-x----| X4
 |
 |
e|--------------|
b|--------------|
g|--------------|
d|---7-7-x-x----|
a|---7-7-x-x----|
E|---5-5-x-x----| X4
...cause new heartbreak to write, a new broken

e|--------------|
b|--------------|
g|---7-7-x-x----|
d|---7-7-x-x----|
a|---5-5-x-x----|
E|--------------| x4
 |
 |
e|--------------|
b|--------------|
g|---7-7-x-x----|
d|---7-7-x-x----|
a|---5-5-x-x----|
E|--------------| X4
...song. do i push it down, or let it

e|--------------|
b|--------------|
g|--------------|
d|---7-7-x-x----|
a|---7-7-x-x----|
E|---5-5-x-x----| X4
 |
 |
e|--------------|
b|--------------|
g|--------------|
d|---7-7-x-x----|
a|---7-7-x-x----|
E|---5-5-x-x----| X4
...run me right into the ground,

CHORUS
e|--------------|
b|--------------|
g|--------------|
d|---5-5-5-5----|
a|---5-5-5-5----|
E|---3-3-3-3----| X4
 |
 |
e|--------------|
b|--------------|
g|--------------|
d|---5-5-5-5----|
a|---5-5-5-5----|
E|---3-3-3-3----| X4
I feel like, i wouldn't


e|--------------|
b|--------------|
g|--------------|
d|---9-9-9-9----|
a|---9-9-9-9----|
E|---7-7-7-7----| X4
 |
 |
e|--------------|
b|--------------|
g|--------------|
d|---9-9-9-9----|
a|---9-9-9-9----|
E|---7-7-7-7----| X4
...like me, if i met

e|--------------|
b|--------------|
g|--------------|
d|---7-7-7-7----|
a|---7-7-7-7----|
E|---5-5-5-5----| X4
 |
 |
e|--------------|
b|--------------|
g|--------------|
d|---7-7-7-7----|
a|---7-7-7-7----|
E|---5-5-5-5----| X4
...me.

BRIDGE (both guitars)
e|--------------|
b|--------------|
g|---7-7-x-x----|
d|---7-7-x-x----|
a|---5-5-x-x----|
E|--------------|  X4


VERSE 2  (not sure if this turns to electric)
e|--------------|
b|--------------|
g|---7-7-x-x----|
d|---7-7-x-x----|
a|---5-5-x-x----|
E|--------------|  X4
 |
 |  (electric)
e|--------------|
b|--------------|
g|---11-11-x-x--|
d|---12-12-x-x--|
a|--- 9- 9-x-x--|
E|--------------|  X4
Well i can't stop talking for fear of

e|--------------|
b|--------------|
g|--------------|
d|---7-7-x-x----|
a|---7-7-x-x----|
E|---5-5-x-x----|  X4
 |
 |  (electric)
e|--------------|
b|--------------|
g|---9-9-x-x----|
d|---9-9-x-x----|
a|---7-7-x-x----|
E|--------------|  X4
...listening to unwelcome sound


e|--------------|
b|--------------|
g|---7-7-x-x----|
d|---7-7-x-x----|
a|---5-5-x-x----|
E|--------------|  X4
 |
 |  (electric)
e|--------------|
b|--------------|
g|---11-11-x-x--|
d|---12-12-x-x--|
a|--- 9- 9-x-x--|
E|--------------|  X4
And you haven't called me in weeks and

e|--------------|
b|--------------|
g|--------------|
d|---7-7-x-x----|
a|---7-7-x-x----|
E|---5-5-x-x----|  X4
 |
 |  (electric)
e|--------------|
b|--------------|
g|---9-9-x-x----|
d|---9-9-x-x----|
a|---7-7-x-x----|
E|--------------|  X4
...honestly it's bringin' me down


CHORUS
e|--------------|
b|--------------|
g|--------------|
d|---5-5-5-5----|
a|---5-5-5-5----|
E|---3-3-3-3----| X4
 |
 |
e|--------------|
b|--------------|
g|--------------|
d|---5-5-5-5----|
a|---5-5-5-5----|
E|---3-3-3-3----| X4
I feel like, i wouldn't


e|--------------|
b|--------------|
g|--------------|
d|---9-9-9-9----|
a|---9-9-9-9----|
E|---7-7-7-7----| X4
 |
 |
e|--------------|
b|--------------|
g|--------------|
d|---9-9-9-9----|
a|---9-9-9-9----|
E|---7-7-7-7----| X4
...like me, if i met

e|--------------|
b|--------------|
g|--------------|
d|---7-7-7-7----|
a|---7-7-7-7----|
E|---5-5-5-5----| X4
 |
 |
e|--------------|
b|--------------|
g|--------------|
d|---7-7-7-7----|
a|---7-7-7-7----|
E|---5-5-5-5----| X4
...me.


e|--------------|
b|--------------|
g|--------------|
d|---5-5-5-5----|
a|---5-5-5-5----|
E|---3-3-3-3----| X4
 |
 |
e|--------------|
b|--------------|
g|--------------|
d|---5-5-5-5----|
a|---5-5-5-5----|
E|---3-3-3-3----| X4
I feel like, you wouldn't


e|--------------|
b|--------------|
g|--------------|
d|---9-9-9-9----|
a|---9-9-9-9----|
E|---7-7-7-7----| X4
 |
 |
e|--------------|
b|--------------|
g|--------------|
d|---9-9-9-9----|
a|---9-9-9-9----|
E|---7-7-7-7----| X4
...like me, if you met

e|--------------|
b|--------------|
g|--------------|
d|---7-7-7-7----|
a|---7-7-7-7----|
E|---5-5-5-5----| X4
 |
 |
e|--------------|
b|--------------|
g|--------------|
d|---7-7-7-7----|
a|---7-7-7-7----|
E|---5-5-5-5----| X4
...me

BRIDGE
e|--------------|
b|--------------|
g|---7-7-x-x----|
d|---7-7-x-x----|
a|---5-5-x-x----|
E|--------------|  X4
 |
 |
e|--------------|
b|--------------|
g|---11-11-x-x--|
d|---12-12-x-x--|
a|--- 9- 9-x-x--|
E|--------------|  X4


e|--------------|
b|--------------|
g|--------------|
d|---5-5-5-5----|
a|---5-5-5-5----|
E|---3-3-3-3----|  X4
 |
 |
e|---------------|
b|---------------|
g|---------------|
d|---11-11-11-11-|
a|---12-12-12-12-|
E|--- 9- 9- 9- 9-|  X4
And dont' you worry there's still


e|--------------|
b|--------------|
g|---7-7-7-7----|
d|---7-7-7-7----|
a|---5-5-5-5----|
E|--------------|  X4
 |
 |
e|---------------|
b|---------------|
g|---11-11-11-11-|
d|---12-12-12-12-|
a|--- 9- 9- 9- 9-|
E|---------------|  X4
...time.      And


e|--------------|
b|--------------|
g|--------------|
d|---5-5-5-5----|
a|---5-5-5-5----|
E|---3-3-3-3----|  X4
 |
 |  (electric)
e|---------------|
b|---------------|
g|---------------|
d|---11-11-11-11-|
a|---12-12-12-12-|
E|--- 9- 9- 9- 9-|  X4
...dont' you worry there's still


e|--------------|
b|--------------|
g|---7-7-7-7----|
d|---7-7-7-7----|
a|---5-5-5-5----|
E|--------------|  X4
 |
 |
e|---------------|
b|---------------|
g|---11-11-11-11-|
d|---12-12-12-12-|
a|--- 9- 9- 9- 9-|
E|---------------|  X4
...time.


VERSE 3
e|--------------|
b|--------------|
g|---7-7-x-x----|
d|---7-7-x-x----|
a|---5-5-x-x----|
E|--------------|  X4
 |
 |
e|--------------|
b|--------------|
g|---11-11-x-x--|
d|---12-12-x-x--|
a|--- 9- 9-x-x--|
E|--------------|  X4
There's nothing to live for when i'm


e|--------------|
b|--------------|
g|--------------|
d|---7-7-x-x----|
a|---7-7-x-x----|
E|---5-5-x-x----|  X4
 |
 |  (electric)
e|--------------|
b|--------------|
g|---9-9-x-x----|
d|---9-9-x-x----|
a|---7-7-x-x----|
E|--------------|  X4
...sleepin' alone.


e|--------------|
b|--------------|
g|---7-7-x-x----|
d|---7-7-x-x----|
a|---5-5-x-x----|
E|--------------|  X4
 |
 |
e|--------------|
b|--------------|
g|---11-11-x-x--|
d|---12-12-x-x--|
a|--- 9- 9-x-x--|
E|--------------|  X4
And i wash the windows outside in


e|--------------|
b|--------------|
g|--------------|
d|---7-7-x-x----|
a|---7-7-x-x----|
E|---5-5-x-x----|  X4
 |
 |
e|--------------|
b|--------------|
g|---9-9-x-x----|
d|---9-9-x-x----|
a|---7-7-x-x----|
E|--------------|  X4
...hopes that the glare will, bring you around


CHORUS
e|--------------|
b|--------------|
g|--------------|
d|---5-5-5-5----|
a|---5-5-5-5----|
E|---3-3-3-3----| X4
 |
 |
e|--------------|
b|--------------|
g|--------------|
d|---5-5-5-5----|
a|---5-5-5-5----|
E|---3-3-3-3----| X4
I feel like, i wouldn't


e|--------------|
b|--------------|
g|--------------|
d|---9-9-9-9----|
a|---9-9-9-9----|
E|---7-7-7-7----| X4
 |
 |
e|--------------|
b|--------------|
g|--------------|
d|---9-9-9-9----|
a|---9-9-9-9----|
E|---7-7-7-7----| X4
...like me, if i met

e|--------------|
b|--------------|
g|--------------|
d|---7-7-7-7----|
a|---7-7-7-7----|
E|---5-5-5-5----| X4
 |
 |
e|--------------|
b|--------------|
g|--------------|
d|---7-7-7-7----|
a|---7-7-7-7----|
E|---5-5-5-5----| X4
...me.


e|--------------|
b|--------------|
g|--------------|
d|---5-5-5-5----|
a|---5-5-5-5----|
E|---3-3-3-3----| X4
 |
 |
e|--------------|
b|--------------|
g|--------------|
d|---5-5-5-5----|
a|---5-5-5-5----|
E|---3-3-3-3----| X4
I feel like, you wouldn't


e|--------------|
b|--------------|
g|--------------|
d|---9-9-9-9----|
a|---9-9-9-9----|
E|---7-7-7-7----| X4
 |
 |
e|--------------|
b|--------------|
g|--------------|
d|---9-9-9-9----|
a|---9-9-9-9----|
E|---7-7-7-7----| X4
...like me, if you met

e|--------------|
b|--------------|
g|--------------|
d|---7-7-7-7----|
a|---7-7-7-7----|
E|---5-5-5-5----| X4
 |
 |
e|--------------|
b|--------------|
g|--------------|
d|---7-7-7-7----|
a|---7-7-7-7----|
E|---5-5-5-5----| X4
...me


BRIDGE
e|--------------|
b|--------------|
g|--------------|
d|---5-5-5-5----|
a|---5-5-5-5----|
E|---3-3-3-3----|  X4
 |
 |
e|---------------|
b|---------------|
g|---------------|
d|---11-11-11-11-|
a|---12-12-12-12-|
E|--- 9- 9- 9- 9-|  X4
And dont' you worry there's still


e|--------------|
b|--------------|
g|---7-7-x-x----|
d|---7-7-x-x----|
a|---5-5-x-x----|
E|--------------|  X4
 |
 |
e|--------------|
b|--------------|
g|---11-11-x-x--|
d|---12-12-x-x--|
a|--- 9- 9-x-x--|
E|--------------|  X4
...time.      And


e|--------------|
b|--------------|
g|--------------|
d|---5-5-5-5----|
a|---5-5-5-5----|
E|---3-3-3-3----|  X4
 |
 |  (electric)
e|---------------|
b|---------------|
g|---------------|
d|---11-11-11-11-|
a|---12-12-12-12-|
E|--- 9- 9- 9- 9-|  X4
...dont' you worry there's still


e|--------------|
b|--------------|
g|---7-7-x-x----|
d|---7-7-x-x----|
a|---5-5-x-x----|
E|--------------|  X4
 |
 |
e|---------------|
b|---------------|
g|---11-11-11-11-|
d|---12-12-12-12-|
a|--- 9- 9- 9- 9-|
E|---------------|  X4     (repeat entire bridge once)
...time.


Ending Bridge
e|--------------|
b|--------------|
g|---7-7-7-7----|
d|---7-7-7-7----|      (both guitars)
a|---5-5-5-5----|
E|--------------|  X4
Sunshine is days away, i won't be saved i know

e|--------------|
b|--------------|
g|--------------|
d|---9-9-9-9----|
a|---9-9-9-9----|
E|---7-7-7-7----|  X4
...all the words, and i can't

e|--------------|
b|--------------|
g|--------------|
d|---7-7-7-7----|
a|---7-7-7-7----|
E|---5-5-5-5----|  X4
...say, that i'll love you

e|--------------|
b|--------------|
g|--------------|
d|---5-5-5-5----|
a|---5-5-5-5----|
E|---3-3-3-3----|  X4
... forever.

e|--------------|
b|--------------|
g|---7-7-7-7----|
d|---7-7-7-7----|
a|---5-5-5-5----|
E|--------------|  X4
Sunshine is days away, i won't be saved i know

e|--------------|
b|--------------|
g|--------------|
d|---9-9-9-9----|
a|---9-9-9-9----|
E|---7-7-7-7----|  X4
...all the words, and i won't

e|--------------|
b|--------------|
g|--------------|
d|---7-7-7-7----|
a|---7-7-7-7----|
E|---5-5-5-5----|  X4
...say, that i'll love you

e|--------------|
b|--------------|
g|--------------|
d|---5-5-5-5----|
a|---5-5-5-5----|
E|---3-3-3-3----|  X4
... forever.


End both guitar on:
e|---------|
b|---------|
g|---7-----|
d|---7-----|
a|---5-----|
E|---------|

There it is, all nice and simple. i'm a little unsure of the second guitar part, i
only guessed at what it might be but i think it sounds alright. There's also a small solo
at the end but thats easy enough to figure out and i'm too lazy to put it in soo....Hope 
like it please rate! thanks!
-Erica
Tap to rate this tab
# A B C D E F G H I J K L M N O P Q R S T U V W X Y Z