Song name
# A B C D E F G H I J K L M N O P Q R S T U V W X Y Z

Tegan And Sara - Monday Monday Monday tab

Song: Monday Monday Monday
By: Tegan and Sara
Tabbed by: Madison WIkston

Tuning: Standard

Verse part:
e|--7--------4--------|
B|--7--------4--------|
G|--8--------4--------|
D|--9--------6--------|  X3 (this is including the intro)
A|--9--------6--------|
E|--7-(X16)--4-(X16)--|

Pre-Chorus part: "without me..."
e|--7--------4-------|
B|--7--------4-------|
G|--9--------4-------|
D|--9--------6-------|
A|--9--------6-------|
E|--7-(X16)--4-(X8)--|

Chorus part: "Monday, Monday, Monday'
e|--4-------0-------2--------|
B|--4-------0-------2--------|
G|--4-------1-------3--------|
D|--6-------2-------4--------|  X5 (listen for important accents/strumming)
A|--6-------2-------4--------|
E|--4-(X3)--0-(X3)--2-(X10)--|

Verse part X2

Pre-Chorus part X1

Chorus part X5

Bridge1 part: "oh and i, i say..."
e|--4-------7-------6-------7-------|
B|--4-------7-------8-------9-------|
G|--4-------8-------8-------9-------|
D|--6-------9-------8-------9-------|  X2
A|--6-------9-------6-------7-------|
E|--4-(X8)--7-(X8)--6-(X8)--7-(X8)--|

Chorus part X1

Verse part X2

Pre-Chorus part X1

Chorus part X5

Bridge2 part:
e|--4-------7-------6-------|
B|--4-------7-------8-------|
G|--4-------8-------8-------|
D|--6-------9-------8-------|
A|--6-------9-------6-------|
E|--4-(X8)--7-(X8)--6-(X8)--|

Bridge1 part X3

Chorus part X2

ends with:
e|--4--4--|
B|--4--4--|
G|--4--4--|
D|--6--6--|
A|--6--6--|
E|--4--4--|

hold the last note :)
Tap to rate this tab
 
# A B C D E F G H I J K L M N O P Q R S T U V W X Y Z