Song name
# A B C D E F G H I J K L M N O P Q R S T U V W X Y Z

Tegan And Sara - You Went Away tab

Help us improve GuitareTab! Take a short survey!
verse

e------------------|
B------------------|
G--7--14-----------|
D--7--14-----------|
A--5--12-----------|
E------------------|

chorus


"Well I don't think..."
e------------------|
B------------------|
G--12--7--9--------|
D--12--7--9--------|
A--10--5--7--------|
E------------------|

riff
e------------------------------------|
B------------------------------------|
G------------------------------------|
D------------4-6-7--6-4--------------|
A------4-5-7-------------7---5-4-----|
E--5-7---------------------------7---|

Bridge

"When my loud guitar..."
e------------------|
B------------------|
G---7--14----------|
D---7--14----------|
A---5--12----------|
E------------------|
Related for You Went Away tab