Song name
# A B C D E F G H I J K L M N O P Q R S T U V W X Y Z

Tegan And Sara - Hype tab

Help us improve GuitareTab! Take a short survey!
	     F#msus	    Dmsus	      EmAdd9   Bmsus
e |-----------------------------------------------------------------|
b |-----------------------------------------------------------------|
g |---------11--11------7------------9-9----------------------------|
d |---------11--11------7------------9-9-------9--------------------|
a |---9--9--9---9----5--5-------7-7--7-7-------9--------------------|
e |-----------------------------------------7--7--------------------|

CHORUS:  Just follow the recording and strum away.  Also you might
not want to pay too much attention to the notes on the high E, just
play the top three notes and it'll sound good.

      A  	E   F#m   D
e |---12----7----9----5---------------------------------------------|
b |---14----9----10---7---------------------------------------------|
g |---14----9----11---7---------------------------------------------|
d |---14----9----11---7---------------------------------------------|
a |---12----7----9----5---------------------------------------------|
e |-----------------------------------------------------------------|

BRIDGE:  

	     F#msus	    Dmsus	      EmAdd9   Bmsus
e |-----------------------------------------------------------------|
b |-----------------------------------------------------------------|
g |---------11----------7------------9------------------------------|
d |---------11----------7------------9---------9--------------------|
a |---------9-----------5------------7---------9--------------------|
e |--------------------------------------------7--------------------|
Related for Hype tab