Song name
# A B C D E F G H I J K L M N O P Q R S T U V W X Y Z

Tegan And Sara - And Darling This Thing That tab

Intro

e--------|
B--------|
G---5----|
D---5----|
A---3----|
E--------|

VERSE

e---------------------|
B---------------------|
G--5------------------|
D--5---------7----5---|
A--3---------7----5---|
E------------5----3---|


chorus

e---------------------|
B---------------------|
G--2---7-------10--7--|
D--3---7---OR--10--7--|
A--3---5-------8---5--|
E--1------------------|
Tap to rate this tab
# A B C D E F G H I J K L M N O P Q R S T U V W X Y Z