Song name
# A B C D E F G H I J K L M N O P Q R S T U V W X Y Z

Tegan And Sara - Terrible Storm tab

SONG: Terrible Storm
ARTIST: Tegan and Sara
ALBUM: If It Was You

Capo 7th

There was a terrible storm...
(Palm-muted)
e|-----|-----|--2--|-----|
B|--0--|--0--|--3--|--0--|
G|-[X]-|-[X]-|--2--|--2--|
D|--4--|--4--|--0--|--2--| 
A|--2--|--2--|--0--|--0--|
E|--0--|--0--|-----|-----|

It was a colder night...
(Palm-muted)
e|-----|
B|-----|
G|--0--|
D|--5--|
A|--7--|
E|--0--|

I thought you would never...
e|--0--|
B|--2--|
G|--2--|
D|--2--|
A|--0--|
E|-----|

But you haven't missed a thing...
e|-----|-----|
B|-----|--0--|
G|--0--|-[X]-|
D|--5--|--4--| x2
A|--7--|--2--|
E|--0--|--0--|

e|-----|--0--|
B|-----|--2--|
G|--0--|--2--|
D|--5--|--2--| x2
A|--7--|--0--|
E|--0--|-----|
Tap to rate this tab
# A B C D E F G H I J K L M N O P Q R S T U V W X Y Z