Song name
# A B C D E F G H I J K L M N O P Q R S T U V W X Y Z

Tegan And Sara - Just Me tab

-------------------------------------------------------------------------------
			     JUST ME - TEGAN AND SARA
-------------------------------------------------------------------------------
Tabbed by: Sam Wood
Email: t.con@hotmail.co.uk

Tuning: Standard.


Right, the intro is simple it's just picking this:

e|---------------------------------------------------------------------------|
B|---------------------------------------------------------------------------|
G|---------------------------------------------------------------------------|
D|---7-7---7-7---------------------------------------------------------------|
A|-55-5-555-5----------------------------------------------------------------|
E|---------------------------------------------------------------------------|

The verse follows straight on from that and the vocals come in too.
Repeat this 6 times.

e|---------------------------------------------------------------------------|
B|---------------------------------------------------------------------------|
G|--5-5----7-7----9-9----7-7-------------------------------------------------|
D|-3-3-3-55-5-5-77-7-7-55-5-5------------------------------------------------|
A|---------------------------------------------------------------------------|
E|---------------------------------------------------------------------------|

When she sings the part "No one's very real today..." You play chords while guitar 2 is 
picking the above. This is also played as the chorus.

e|---------------------------------------------------------------------------|
B|---------------------------------------------------------------------------|
G|---------------------------------------------------------------------------|
D|-5555555-7777777-9999999-7777777-------------------------------------------|
A|-3333333-5555555-7777777-5555555-------------------------------------------|
E|---------------------------------------------------------------------------|

Verse 2:
Played only 3 times this time.
e|---------------------------------------------------------------------------|
B|---------------------------------------------------------------------------|
G|--5-5----7-7----9-9----7-7-------------------------------------------------|
D|-3-3-3-55-5-5-77-7-7-55-5-5------------------------------------------------|
A|---------------------------------------------------------------------------|
E|---------------------------------------------------------------------------|

Chords are played once again when she they sing "Dont you ever wanna change?..." And 
the chorus too.

e|---------------------------------------------------------------------------|
B|---------------------------------------------------------------------------|
G|---------------------------------------------------------------------------|
D|-5555555-7777777-9999999-7777777-------------------------------------------|
A|-3333333-5555555-7777777-5555555-------------------------------------------|
E|---------------------------------------------------------------------------|


The part where they sing "Just me.." goes like:

e|---------------------------------------------------------------------------|
B|---------------------------------------------------------------------------|
G|---------------------------------------------------------------------------|
D|-5555555-7777777-5555555-7777777-------------------------------------------|
A|-3333333-5555555-3333333-5555555-55555555555555----------------------------|
E|---------------------------------33333333333333----------------------------|

Then back into the chorus (this time both guitars are playing chords).

e|---------------------------------------------------------------------------|
B|---------------------------------------------------------------------------|
G|---------------------------------------------------------------------------|
D|-5555555-7777777-9999999-7777777-------------------------------------------|
A|-3333333-5555555-7777777-5555555-------------------------------------------|
E|---------------------------------------------------------------------------|

Play the next part again when they sing "Not me..."

e|---------------------------------------------------------------------------|
B|---------------------------------------------------------------------------|
G|---------------------------------------------------------------------------|
D|-5555555-7777777-5555555-7777777-5555555-7---------------------------------|
A|-3333333-5555555-3333333-5555555-3333333-5-5-------------------------------|
E|-------------------------------------------3-------------------------------|

And thats the end of the song.
I'm pretty sure this is right about 99.9%, erm if you spot anything thats not up to 
just email me and I'll fix it. Enjoy and please rate :) -Sam

| /  slide up
| \  slide down
| h  hammer-on
| p  pull-off
| ~  vibrato
| +  harmonic
| x  Mute note
===============================================================================
Tap to rate this tab
 
# A B C D E F G H I J K L M N O P Q R S T U V W X Y Z