Song name
# A B C D E F G H I J K L M N O P Q R S T U V W X Y Z

Tegar - Aku Yang Dulu Bukanlah Yang Sekarang tab

this is my first tab.. it's simple as 1 2 3




e|------------------------------------------|
B|--5--5--5----5----5--6--6/8--6--5--6------|
G|-----------7----7-------------------------|
D|------------------------------------------|
A|------------------------------------------|
E|------------------------------------------|


e|--------------------------------------------------|
B|--------------------------------5--6--5-----5-----|
G|--5--7---7--7--7--5--7----5--7-----------7--------|
D|--------------------------------------------------|
A|--------------------------------------------------|
E|--------------------------------------------------|


e|-------------------------------------------|
B|---------------------------5---------------|
G|--5---5---5--5--4--5--5/7-----7------------|
D|-------------------------------------------|
A|-------------------------------------------|
E|-------------------------------------------|


e|---------------------------------------------|
B|---------------------------------------------|
G|--5--4~--------------5/7--5--4---------------|
D|-----------7--6~-----------------------------|
A|---------------------------------------------|
E|---------------------------------------------|
Tap to rate this tab
# A B C D E F G H I J K L M N O P Q R S T U V W X Y Z