Song name
# A B C D E F G H I J K L M N O P Q R S T U V W X Y Z

Tego Calderon - Cambumbo tab

da beginning of da song
e|------------------5-5--9-9------|
B|--5-7-5------5-7----------------|
G|---------5-5--------------------|
D|--------------------------------|
A|--------------------------------|
E|--------------------------------|

             or

e|------------------10-10--14-14--|
B|-5-7-5-----5-7----10-10--14-14--|
G|--------5-5---------------------|
D|--------------------------------|
A|--------------------------------|
E|--------------------------------|
any problems just holla at me @ hybridsss@hotmail.com
Tap to rate this tab
 
# A B C D E F G H I J K L M N O P Q R S T U V W X Y Z