Song name
# A B C D E F G H I J K L M N O P Q R S T U V W X Y Z

Teitur - I Was Just Thinking tab

---------------------------------------------------------------------------
                         I WAS JUST THINKING - Teitur
---------------------------------------------------------------------------
Tabbed by: MusicalRose

Capo 4th Fret

Tuning: EADGBe

INTRO
e|---------------------222------------------------------------------------|
B|-----333-----222-----333--(0-0-0)-----333-----222-----------------------|
G|-----000-----222-----222------0-------000-----222-----------------------|
D|-----444-----222--0---------4---------444-----222-----------------------|
A|----------0---------------2----------------0----------------------------|
E|--3--------------------------------3------------------------------------|

                                              I was just

VERSE 1
e|------222---------------------------------------------------------------|
B|------333--(0-0-0)-----333-----222--------------------------------------|
G|------222------0-------000-----222--------------------------------------|
D|--0----------4---------444-----222--------------------------------------|X2
A|-----------2----------------0-------------------------------------------|
E|--------------------3---------------------------------------------------|

thinking                       that I have been 
missing you for way too long. There's something in-

e|-----000-----000-----000-----000-----000-----000------------------------|
B|-----333-----333-----333-----333-----333-----333------------------------|
G|-----000-----000-----222-----222-----222-----222------------------------|
D|-----222-----222-----000-----000-----000-----000------------------------|
A|--2---------------------------------------------------------------------|
E|--0-------0-------2-------2-------3-------3-----------------------------|

side this weary head that wants us to love just in

e|-----000-----000-----000-----000-----222--------------------------------|
B|-----333-----333-----333-----222-----333------------333-----------------|
G|-----222-----222-----222-----222-----222------0-----000-----------------|
D|-----000-----000-----000--2-------0---------4-------444-----------------|
A|--0-------2-------0-----------------------2-----------------------------|
E|-------------------------------------------------3----------------------|

stead. But I was just thinking,         merely thinking.

e|------------000-----000--0----------------------------------------------|
B|------------333-----333--2----------------------------------------------|
G|------------222-----222--0----------------------------------------------|
D|---------0--000--0--000--2----------------------------------------------|
A|--0-2-4------------------0----------------------------------------------|
E|------------------------------------------------------------------------|

                               I've got loads of

VERSE 2
e|-----222----------------------------------------------------------------|
B|-----333--(0-0-0)-----333-----222---------------------------------------|
G|-----222------0-------000-----222---------------------------------------|
D|--0---------4---------444-----222---------------------------------------|X2
A|----------2----------------0--------------------------------------------|
E|-------------------3----------------------------------------------------|

pictures,                   I've got the one of
you in that dancing dress.  But man I feel

e|-----000-----000-----000-----000-----000-----000------------------------|
B|-----333-----333-----333-----333-----333-----333------------------------|
G|-----000-----000-----222-----222-----222-----222------------------------|
D|-----222-----222-----000-----000-----000-----000------------------------|
A|--2---------------------------------------------------------------------|
E|--0-------0-------2-------2-------3-------3-----------------------------|

silly in that dim light just after doing you by the sight of my

e|-----000-----000-----000-------------222--------------------------------|
B|-----333-----333-----333-------------333------------333-----------------|
G|-----222-----222-----222-------------222------0-----000-----------------|
D|-----000-----000-----000---------0----------4-------444-----------------|
A|--0-------2-------0-------0-2-4-----------2-----------------------------|
E|-------------------------------------------------3----------------------|

Kodak delights. I am sinking,             merely sinking.

e|-------------222-----2-2-222--------------------------------------------|
B|-----222-----333-----3-2-111--------------------------------------------|
G|-----222-----222-----2-2-222--------------------------------------------|
D|-----222--0-------0------0----------------------------------------------|
A|--0---------------------------------------------------------------------|
E|------------------------------------------------------------------------|

                                I think about

CHORUS 1
e|-------------------------------------222-----222------------------------|
B|-----333-----333-----333-----333-----333-----333------------------------|
G|-----222-----222-----222-----222-----222-----222------------------------|
D|-----000-----000-----000-----000--0-------------------------------------|
A|------------------------------------------4-----------------------------|
E|--3-------3-------2-------2---------------------------------------------|

long distance rates instead of kissing you babe. I'm a singer without a 

e|-----222-----222-----333-----333-----333-----333------------------------|
B|-----000-----000-----222-----222-----222-----222------------------------|
G|-----222-----222-----000-----000-----000-----000------------------------|
D|------------------------------------------------------------------------|
A|--2-------0-------------------------------------------------------------|
E|------------------3-------3-------2-------2-----------------------------|

song.          If I wait for you longer my affection is stronger, but

e|------------------------------------------------------------------------|
B|------------------------------------------------------------------------|
G|------0-----0-----0-2-0-------0-----0-----0-2-0-------------------------|
D|----4-----4-----4-------4---4-----4-----4-------4-----------------------|
A|--2-----2-----3-----------2-----2-----3---------------------------------|
E|------------------------------------------------------------------------|

I,                 I was just thinking,      merely

e|--------------------------------------------------0---------------------|
B|-----333-----333-----333-----333-----333-----333--2---------------------|
G|-----000-----000-----222-----222-----000-----000--0---------------------|
D|-----222-----222-----000-----000-----222-----222--2---------------------|
A|----------------------------------0-------0-------0---------------------|
E|--0-------0-------2-------2---------------------------------------------|

thinking.           This boat is sinking.

e|------222---------------------------------------------------------------|
B|------333--(0-0-0)-----333-----222--------------------------------------|
G|------222------0-------000-----222--------------------------------------|
D|--0----------4---------444-----222--------------------------------------|X2
A|-----------2----------------0-------------------------------------------|
E|--------------------3---------------------------------------------------|

                     2nd X: Yeah, I'm tired of

VERSE 3 
e|------222---------------------------------------------------------------|
B|------333--(0-0-0)-----333-----222--------------------------------------|
G|------222------0-------000-----222--------------------------------------|
D|--0----------4---------444-----222--------------------------------------|X4
A|-----------2----------------0-------------------------------------------|
E|--------------------3---------------------------------------------------|

postcards,                   especially the ones with
cute dogs and cupids.        I'm tired of
calling you, and missing you, and dreaming that I've slept with you.
Don't get me wrong I still desperately love you. In-

e|-----000-----000-----000-----000-----000-----000------------------------|
B|-----333-----333-----333-----333-----333-----333------------------------|
G|-----000-----000-----222-----222-----222-----222------------------------|
D|-----222-----222-----000-----000-----000-----000------------------------|
A|--2---------------------------------------------------------------------|
E|--0-------0-------2-------2-------3-------3-----------------------------|

side this weary head. I just want us to love just in-

e|-----000-----000-----000-----000-----222--------------------------------|
B|-----333-----333-----333-----222-----333------------333-----------------|
G|-----222-----222-----222-----222-----222------0-----000-----------------|
D|-----000-----000-----000--2-------0---------4-------444-----------------|
A|--0-------2-------0-----------------------2-----------------------------|
E|-------------------------------------------------3----------------------|

stead. But I was just thinking and thinking, merely thinking.

e|-------------222-----2-2-222--------------------------------------------|
B|-----222-----333-----3-2-111--------------------------------------------|
G|-----222-----222-----2-2-222--------------------------------------------|
D|-----222--0-------0------0----------------------------------------------|
A|--0---------------------------------------------------------------------|
E|------------------------------------------------------------------------|

                                I think about

CHORUS 2
e|-------------------------------------222-----222------------------------|
B|-----333-----333-----333-----333-----333-----333------------------------|
G|-----222-----222-----222-----222-----222-----222------------------------|
D|-----000-----000-----000-----000--0-------------------------------------|
A|------------------------------------------4-----------------------------|
E|--3-------3-------2-------2---------------------------------------------|

long distance rates instead of kissing you babe. And time is running me 

e|-----222-----222--------------------------------------------------------|
B|-----000-----000-----333-----333-----333-----333------------------------|
G|-----222-----222-----222-----222-----222-----222------------------------|
D|---------------------000-----000-----000-----000------------------------|
A|--2-------0-------------------------------------------------------------|
E|------------------3-------3-------2-------2-----------------------------|

still.  If I wait for you longer my affection is stronger. And

e|------------------------------------------------------------------------|
B|------------------------------------------------------------------------|
G|------0-----0-----0-2-0-------0-----0-----0-2-0-------------------------|
D|----4-----4-----4-------4---4-----4-----4------4------------------------|X2
A|--2-----2-----3-----------2-----2-----3---------------------------------|
E|------------------------------------------------------------------------|

I,                I was just thinking.    I said that
I,                I was just thinking.    That I'm tired of

e|--0---------------0---------------0-------------------------------------|
B|--3-------3-------3-------3-------3-------3-------3---------------------|
G|--0-------0-------2-------2-------0-------0-------0---------------------|
D|--2-------2-------0-------0-------2-------2-------2---------------------|
A|--2---------------0---------------0-------------------------------------|
E|--0---------------2-----------------------------------------------------|

calling you once a week. And thinking of long distance rates instead of kissing you

e|---------------------222------------------------------2-----------------|
B|-----333-----222-----333--(0-0-0)-----333-----222-----3-----------------|
G|-----000-----222-----222------0-------000-----222-----2-----------------|
D|-----444-----222--0---------4---------444-----222--0--------------------|
A|----------0---------------2----------------0----------------------------|
E|--3--------------------------------3------------------------------------|

Baby I'm sinking,        merely sinking
Tap to rate this tab
# A B C D E F G H I J K L M N O P Q R S T U V W X Y Z