Telekinesis - I Saw Lightning chords

Highlighted       Show chord diagrams
Tabbed by: Greg Whittaker

Artist: Telekinesis
Song: I Saw Lightning

Tuning: Standard
Capo: 2nd Fret


----------------------------------------------------------------------------


[Main Riff]

    C  [ch]Cadd2[/ch]/B  Am            C  [ch]Cadd2[/ch]/B  Am   A6/7sus4
 
e|--0-----0-----0--|        |--0-----0-----0-----0--|
B|--1-----1-----1--|        |--1-----1-----1-----3--|
G|--0-----0-----2--| (x2)   |--0-----0-----2-----0--|  (x1)
D|--2-----0----h2--|        |--2-----0----h2-----4--|
A|--3-----2-----0--|        |--3-----2-----0-----5--|
E|--0-----0-----0--|        |--0-----0-----0-----0--|


[Verse 1 - play main riff]

I saw lightning coming from the street

You were trembling, hearing your heartbeat

Leaned in closer, let me kiss you on the cheek

Singing to you softly, singing to you sweet


[Chorus]

G       Am                C           D      
I wanna care for you when you are all alone
G      Am                C              D 
Sit inside our house and unplug all our phones
G        Am                    C           D 
Watching raindrops stream down on our windowsill
Am
Let's be in love


[Repeat Intro]


[Verse 2 - play main riff]

Take a walk, take me in your hands

Hear the wind blow, pretend we’re in Japan

I saw lightning, coming from the street

You reached out and it didn’t startle me


[Chorus]

G       Am                C           D      
I wanna care for you when you are all alone
G      Am                C              D 
Sit inside our house and unplug all our phones
G        Am                    C           D 
Watching raindrops stream down on our windowsill
Am
Let's be in love


[Outro]

    C  [ch]Cadd2[/ch]/B  Am            C  [ch]Cadd2[/ch]/B  Am    G
 
e|--0-----0-----0--|        |--0-----0-----0-----3--|
B|--1-----1-----1--|        |--1-----1-----1-----3--|
G|--0-----0-----2--| (x2)   |--0-----0-----2-----0--|  (x1)
D|--2-----0----h2--|        |--2-----0----h2-----0--|
A|--3-----2-----0--|        |--3-----2-----0-----2--|
E|--0-----0-----0--|        |--0-----0-----0-----3--|
Tap to rate this tab
 
# A B C D E F G H I J K L M N O P Q R S T U V W X Y Z