Telekinesis - Imaginary Friend tab

-------------------------------------------------------------------------------
			     IMAGINARY FRIEND - Telekinesis
-------------------------------------------------------------------------------
Tabbed by: elmatador13
Email: 14rays@gmail.com
Tuning: Standard

Here is the solo for Imaginary Friend. Its a great song. Enjoy.


Played from 02:11 to 02:39
e|---------------------------------------------------------------------------|
B|---------------------------------------------------------------------------|
G|------11-11-11-13-11-------------------------------------------------------|
D|---------------------11-11-11-11-13-11-------------11/13-------------------| Played 3 times
A|------------------------------------14-14-14-14----------------------------|
E|---------------------------------------------------------------------------|

e|---------------------------------------------------------------------------|
B|---------------------------------------------------------------------------|
G|----11-11-11-11------------------------------------------------------------|played once
D|----------------14-14-14-14\13---------------------------------------------|
A|---------------------------------------------------------------------------|
E|---------------------------------------------------------------------------|


************************************

| /   slide up
| \   slide down
| h   hammer-on
| p   pull-off
| ~   vibrato
| +   harmonic
| x   Mute note
| b   Bend
| pb  Pre-bend
| br  Bend release
| pbr Pre-bend release
| brb Bend release bend

************************************
Tap to rate this tab
 
# A B C D E F G H I J K L M N O P Q R S T U V W X Y Z