Song name
# A B C D E F G H I J K L M N O P Q R S T U V W X Y Z

Telekinesis - Please Ask For Help tab

The guitar tabs for this song are repetitive, and are not played
throughout the whole song. They come in and out several times
leaving the gaps for the bass and drums. These are the riffs. Just
 listen to the song and you'll figure out when to play them.

By the way, when it says 6B7B6, it's a bend from the 6th fret to
the 7th, then back down to the 6th. Again, just listen to the song.
Enjoy this great band!

         PART 1
e -------------------------------------------------|
B -------------------------------------------------|
G --9--9--99--9--9--9--999--7--7--77--6--6--6--666-|
D --9--9--99--9--9--9--999--9--9--99--9--9--9--999-|
A -------------------------------------------------|
E -------------------------------------------------|

         PART 2
e ------------------------------------------------|
B ------------------------------------------------|
G ---6-666---666-666---6-9997-6-6--6B7B6----------|
D --9------9---------9----------------------------|
A ------------------------------------------------|
E ------------------------------------------------|
Tap to rate this tab
 
# A B C D E F G H I J K L M N O P Q R S T U V W X Y Z