Song name
# A B C D E F G H I J K L M N O P Q R S T U V W X Y Z

Telekinesis - 50 Ways tab

Telekinesis 50 Ways

e|------------------------------------------------------------|
B|------------------------------------------------------------|
G|------------------------------------------------------------|
D|-5-5-5-x-x-9-9-9-x-x-12-12-x--------------------------------|x4
A|-5-5-5-x-x-9-9-9-x-x-12-12-x-5-5-5--------------------------|
E|-3-3-3-x-x-7-7-7-x-x-10-10-x-3-3-3--------------------------|




e|--------------------2----2--------5----5---------2---2------|
B|---3----3--------------------3-------------7----------------|
G|-------------4---4----4----4----7----7---7----4----4--------|
D|-5---5----5-------------------------------------------------|x6
A|------------------------------------------------------------|
E|------------------------------------------------------------|

e|---2--------0------------------------------------------------|
B|--------5----------------------------------------------------|
G|-4---4----4--------------------------------------------------|
D|-------------------------------------------------------------|
A|-------------------------------------------------------------|
E|-------------------------------------------------------------|

e|-----------------------------------------------------------------------|
B|-----------------------------------------------------------------------|
G|-----------------------------------------------------------------------|
D|-5-5-5-5-5-5-5-5-5-x-x-9-9-9-9-9-9-9-9-x-x-12-12-12-12-12-12-12-12-12--|
A|-5-5-5-5-5-5-5-5-5-x-x-9-9-9-9-9-9-9-9-x-x-12-12-12-12-12-12-12-12-12--|
E|-3-3-3-3-3-3-3-3-3-x-x-7-7-7-7-7-7-7-7-x-x-10-10-10-10-10-10-10-10-10--|

-------------------------------------------------------------------------|
-------------------------------------------------------------------------|
-------------------------------------------------------------------------|
x-x----------------------------------------------------------------------|x2
x-x-5-5-5-5-5-5-5-5-5-5-5-5----------------------------------------------|
x-x-3-3-3-3-3-3-3-3-3-3-3-3----------------------------------------------|

B|-/8-8-8-8-7-7-7-7-5-5|
Tap to rate this tab
# A B C D E F G H I J K L M N O P Q R S T U V W X Y Z