Guitaretab - guitar tabs
Song name
# A B C D E F G H I J K L M N O P Q R S T U V W X Y Z

Telephone - Cendrillon tab

Artiste : Telephone
Chanson : Cendrillon
Tablature de : Alex
Difficulté : 4/10

Intro A E F#m D x4


L'intro rend très bien en picking de cette manière : (les accords au dessus peuvent être 
par une eventuelle 2e guitare)


   A               E                F#m            D
e---------------------------------------------------------------------------|
b-----10------10-------9-------9-------7-------7-------7-------7------------|
g----9---9--9----9---9---9---9---9---9---9---9---9---7---7---7---7----------|  x4
D--7-------7-------7-------7-------7-------7-------7-------7----------------|
A---------------------------------------------------------------------------|
E---------------------------------------------------------------------------|

A                       E                        F#m            D
Cendrillon pour ses vingt ans est la plus jolie des enfants
Son bel amant le prince charmant la prend sur son cheval blanc

E              A °            °vous pouvez completer après le A par : e--0------|
Elle oublie le temps                                                  b---3-2---|
E                F#m                                                  g---------|
Dans son palais d'argent


Vous pouvez faire la montée en picking de "pour ne pas voir.." jusqu'à "elle part.." 
montré ci-dessous :
(écoutez la chanson pour la placer correctement)

     (Bm*)
Pour ne pas voir qu'un nouveau jour se lève
     (D)
Elle ferme les yeux et dans ses rêves
[ Tab from: http://www.guitaretab.com/t/telephone/19119.html ]
e------------------------------------------------------------|
b------------------------------------------------------------|
g--4--6--7--9--7--9--11-13-----------------------------------|
D------------------------------------------------------------|
A--2--4--5--7--5--7--9--11-----------------------------------|
E------------------------------------------------------------|

A E F#m  (Etouffer les cordes)   completez le A et le E comme ceci : e---0----0---0----0-------|
Elle part..                                                          b---2-2h3----0-2h3--------|
D A E F#m D                                                          g---2--------1------------|
Jolie petite histoire                                                D---2--------2------------|
Bis                                                                  A---0--------2------------|
                                                                     E---0--------0------------|
Cendrillon pour ses trente ans est la plus triste des mamans
Le prince charmant a foutu le camp avec la belle au bois dormant
Elle a vu cent chevaux blansc loin d'elle emmener ses enfants

Elle commence a boire
A trainer dans les bars

Emmitouflée dans son cafard
Maintenant elle fait le trottoir

Elle part...
Jolie petite histoire
Bis

Dix ans de cette vie ont suffit à la changer en junkie
Et dans un sommeil infini Cendrillon voit finir sa vie

Les lumières dansent
Dans l'ambulance

Mais elle tue sa dernière chance
Tout cela n'a plus d'importance

Elle part...
Fin de l'histoire

Solo (Si vous êtes flemmards comme moi rejouez simplement l'intro)

A                      E
Notre Père qui êtes si vieux
F#m                       D
As-tu vraiment fait de ton mieux
       A                   D
Car sur la terre et dans les cieux
F#m                            D                         A  (tenir, et faire en barré)
   Tes anges n'aiment pas..devenir vieux

Fin


A : 002220 ou barré : 577655
E : 022100
F#m : 244222
D : 000232
Bm* : 224422 *Je trouve que cela sonne mieux en supprimant la tierce


A=La
B=Si
C=Do
D=Ré
E=Mi
F=Fa
G=Sol
Related for Cendrillon tab
Cendrillon chords by Telephone