Guitaretab - guitar tabs
Song name
# A B C D E F G H I J K L M N O P Q R S T U V W X Y Z

Television - Marquee Moon tab

-------------------------------------------------------------------------------
			     Marquee Moon - Television
-------------------------------------------------------------------------------
Tabbed by: Antaios
Email: geeter1321@yahoo.com

This is just the first part of the solo. I'm not going into that 5 minute ambient 
stuff. Here it is:

e|-10--10--10----------------------------------------------------------------|
B|------------13-10----10----------------------------------------------------|
G|------------------12----12-11----11----------------------------------------|
D|------------------------------12----12-10h12p10----------------------------|
A|------------------------------------------------12-10----------------------|
E|------------------------------------------------------10-14-10-14----------|
[ Tab from: http://www.guitaretab.com/t/television/183984.html ]
e|---------------------------------------------------------------------------|
B|-10--10--10----------------------------------------------------------------|
G|------------12-11-9-11-9---------------------------------------------------|
D|-------------------------12-9-12-9-----------------------------------------|
A|-----------------------------------12-10-9h10p9----9-----------------------|
E|------------------------------------------------10-------------------------|

e|-19--19--19-17-15-17-19-17-15-17-19-17-15-17-19---17--22-------------------|
B|---------------------------------------------------------------------------|
G|---------------------------------------------------------------------------|
D|---------------------------------------------------------------------------|
A|---------------------------------------------------------------------------|
E|---------------------------------------------------------------------------|

e|8-7------------------------------------------------------------------------|
B|----8-7--------------------------------------------------------------------|
G|---------7-----------------------------------------------------------------|
D|------------5\0------------------------------------------------------------|
A|---------------------------------------------------------------------------|
E|---------------------------------------------------------------------------|


| /  slide up
| \  slide down
| h  hammer-on
| p  pull-off
| ~  vibrato
| +  harmonic
| x  Mute note
===============================================================================
Related for Marquee Moon tab