Song name
# A B C D E F G H I J K L M N O P Q R S T U V W X Y Z

Television - Elevation tab

-------------------------------------------------------------------------------
			     Elevation - Television
-------------------------------------------------------------------------------
Tabbed by: Antaios
Email: geeter1321@yahoo.com

Tuning: EADGBe

This is used at the end of the chorus and is used as the transition into the solo
e|12--14---------------------------------------------------------------------|
B|--------12h15p12-----------------------------------------------------------|
G|-----------------14p12----12----------------------12/14--------------------|
D|-----------------------14----14p12----12-----------------------------------|
A|-----------------------------------15----15-14-15--------------------------|
E|---------------------------------------------------------------------------|

Solo (contd from above)
e|------------12-------------------------------------------------------------|
B|12-------------------------------------------------------------------------|
G|---14-12-14----14h16p14p12h14p12----12-------------------------------------|
D|---------------------------------14----14-12-------------------------------|
A|---------------------------------------------15~-12------------------------|
E|-----------------------------------------------------13--8--1--------------|

e|-----------------------------------------------------------12----------------|
B|----------------------------------10-12h13p12p10-----10-12b---12b------------|
G|-------------------2/5/9/14/17/21----------------10--------------------------|
D|-----------------------------------------------------------------------------|
A|------0-2h3p2---0------------------------------------------------------------|
E|0h1h3---------3--------------------------------------------------------------|

e|-------------------12-------------------------------------17-----------------|
B|12p10p8-----10--12b---12b-12p10p8--15--17-18--18p17p15-17b---17b-18p17p15----|
G|--------10-------------------------------------------------------------------|
D|-----------------------------------------------------------------------------|
A|-----------------------------------------------------------------------------|
E|-----------------------------------------------------------------------------|

e|----15-17-19-20--20p19p17-21b-21b--------------------------------------------|
B|17---------------------------------------------------------------------------|
G|-----------------------------------------------------------------------------|
D|-----------------------------------------------------------------------------|
A|-----------------------------------------------------------------------------|
E|-----------------------------------------------------------------------------|

e|12--14---------------------------------------------------------------------|
B|--------12h15p12-----------------------------------------------------------|
G|-----------------14p12----12----------------------12/14--------------------|
D|-----------------------14----14p12----12-----------------------------------|
A|-----------------------------------15----15-14-15--------------------------|
E|---------------------------------------------------------------------------|


| /  slide up
| \  slide down
| h  hammer-on
| p  pull-off
| ~  vibrato
| +  harmonic
| x  Mute note
===============================================================================
Tap to rate this tab
 
# A B C D E F G H I J K L M N O P Q R S T U V W X Y Z