Song name
# A B C D E F G H I J K L M N O P Q R S T U V W X Y Z

Television - Eastenders tab

			    Eastenders Theme

Tabbed by:Largebehind
Tuning: Eb

I'm not entirely sure this tab is correct but is was playing the A Ionian scale one day
noticed the intro (0240) so I put together a rough sounding theme. I realise this
need to be in Eb but thats how my guitar was tuned at the time and I couldn't be 
to retune. So if your playing in standard move everything down a half step. Thank you

eb|------------------------------------------------------------------------|
Bb|------------------------------------------------------------------------|
Gb|--------------------------------------------------0-2-4-0--8-6-4-2-0----|
Db|--------0-2-4-0--8-6-4-2-0--0-1-3---------0-2-4-------------------------|
Ab|-0-2-4-----------------------------0-2-4--------------------------------|
Eb|------------------------------------------------------------------------|

eb|------------------------------------------------------------------------|
Bb|------------------------------------------------------------------------|
Gb|--0-1-3-----------------------------------------------------------------|
Db|----------4-2-----------------------------------------------------------|
Ab|------------------------------------------------------------------------|
Eb|------------------------------------------------------------------------|
Tap to rate this tab
# A B C D E F G H I J K L M N O P Q R S T U V W X Y Z