Song name
# A B C D E F G H I J K L M N O P Q R S T U V W X Y Z

Television - Eastenders tab

Eastenders Theme Tune Guitar Version

E[-----------0-------------------------]
B[-----0-1-3---1-1-0-------------3-----]
G[-0-2---------------2-0-0-----0---0-2-]
D[-------------------------0-0---------]
A[-------------------------------------]
E[-------------------------------------]

E[-----------0---------------------------]
B[-----0-1-3---1-1-0---------0-1-3-0-----]
G[-0-2---------------2-0-0-----------2-0-]
D[-------------------------0-------------]
A[---------------------------------------]
E[---------------------------------------]
Tap to rate this tab
 
# A B C D E F G H I J K L M N O P Q R S T U V W X Y Z