Song name
# A B C D E F G H I J K L M N O P Q R S T U V W X Y Z

Television - Eastenders tab

E------------------------------------------------------------------------|
B------------------------------------------------------------------------|
G------------------------------------------------------------------------|
D-----------4------------------------------------------------------------|
A-----4-5-7---5-5-4-----------4-5----------------------------------------|
E-5-7---------------7-5-5-5-7-----5-7------------------------------------|

E------------------------------------------------------------------------|
B------------------------------------------------------------------------|
G------------------------------------------------------------------------|
D-----------4------------------------------------------------------------|
A-----4-5-7---5-5-4-----------4-7-4--------------------------------------|
E-5-7---------------7-5-5-5-7-------7-5----------------------------------|
Tap to rate this tab
 
# A B C D E F G H I J K L M N O P Q R S T U V W X Y Z