Guitaretab - guitar tabs
Song name
# A B C D E F G H I J K L M N O P Q R S T U V W X Y Z

Temper Temper - Loaded Life tab

Artist: Temper Temper
Title: Loaded Life
Album: Temper Temper (2005)
Label: Revelation Records

Fully tabbed by Goad.
For questions or whatever, just leave a comment.

The band's myspace: http://www.myspace.com/tempertempermilwaukee

\ = slide down to lower note(s)
" = tremolo

Standard Tuning  4/4 Time

==========
INTRO: (0:00 to 0:25)
e|----------------|----------------|----------------|----------------|
B|----------------|----------------|----------------|----------------|
G|----------------|----------------|----------------|----------------|
D|-----(bass)-----|----------------|----------------|----------------|
A|----------------|----------------|----------5"-7"-|----------5"-7"-|
E|----------------|------------12\-|-0"-------------|-0"-------------|

e|----------------|----------------|----------------|----------------|
B|----------------|----------------|----------------|----------------|
G|----------------|----------------|----------------|----------------|
D|----------------|----------------|----------------|----------------|
A|----------5"-7"-|----------5"-7"-|----------5"-7"-|----------5"-7"-|
E|-0"-------------|-0"-------------|-0"-------------|-0"-------------|


VERSE: (0:26 to 0:52)
e|---------------------|---------------------|
B|---------------------|---------------------|
G|-7-777--9-9--9--9--9-|-7-777--9-9--9--9--9-|
D|-7-777--9-9--9--9--9-|-7-777--9-9--9--9--9-|
A|-5-555--7-7--7--7--7-|-5-555--7-7--7--7--7-| x3
E|---------------------|---------------------|

                                  *let chords ring
e|---------------------|---------------------------|
B|---------------------|---------------------------|
G|-7-777--9-9--9--9--9-|-7-777--9-9--9--9--9--9--9-|
D|-7-777--9-9--9--9--9-|-7-777--9-9--9--9--9--9--9-|
A|-5-555--7-7--7--7--7-|-5-555--7-7--7--7--7--7--7-|
E|---------------------|---------------------------|


CHORUS: (0:52 to 1:05)
e|-------------------------|----------05-3-2-2h3p2---|
B|-------------------------|-----------------------3-|
G|---------------4-5-7-5-4-|-4-5-5-------------------|
D|-----------5-7-----------|-------------------------|
A|-----5-------------------|-------------------------|
E|-5-7---7-----------------|-------------------------|

e|-------------------------|----------05-3-2-3-2---|
B|-------------------------|---------------------3-|
G|---------------4-5-7-5-4-|-4-5-5-----------------|
D|-----------5-7-----------|-----------------------|
A|-----5-------------------|-----------------------|
E|-5-7---7-----------------|-----------------------|


Repeat VERSE (1:06 to 1:32)
Repeat CHORUS, this time x4 (& w/out the hammer-on/pull-off) (1:32 to 1:58)

[ Tab from: http://www.guitaretab.com/t/temper-temper/109359.html ]
BRIDGE: (1:59)
e|----------------|----------------|----------------|----------------|
B|----------------|----------------|----------------|----------------|
G|----------------|-5--------------|----------------|-5--------------|
D|-2--------------|-5--------------|-2--------------|-5--------------|
A|-2--------------|-3--------------|-2--------------|-3--------------|
E|-0--------------|----------------|-0--------------|----------------|

e|----------------|----------------|----------------|---------------------|
B|----------------|----------------|----------------|---------------------|
G|----------------|-5-----5-5-5--5-|----------------|-5555-5555-5555-5555-|
D|-2--------------|-5-----5-5-5--5-|-2--------------|-5555-5555-5555-5555-|
A|-2--------------|-3-----3-3-3--3-|-2--------------|-3333-3333-3333-3333-|
E|-0--------------|----------------|-0--------------|---------------------|


INTRO-variant: (2:25)
e|----------------|----------------|----------------|----------------|
B|----------------|----------------|----------------|----------------|
G|----------------|----------------|----------------|----------------|
D|-----(bass)-----|----------------|----------------|----------------|
A|----------------|----------------|----------5"-7"-|----------5"-7"-|
E|----------------|------------12\-|-0"-------------|-0"-------------|


Repeat VERSE (2:38)


BREAK: "...up, up, up..." (3:05)
e|------------------------|
B|------------------------|
G|------------------------|
D|------------------------|
A|------------------------|
E|--------------------12\-|


CHORUS-variant: -- repeat x2 (3:08)
e|-------------------------|----------05-3-2-3-2---|
B|-------------------------|---------------------3-|
G|---------------4-5-7-5-4-|-4-5-5-----------------|
D|-----------5-7-----------|-----------------------|
A|-----5-------------------|-----------------------|
E|-5-7---7-----------------|-----------------------|

e|-------------------------|---------005-3-2-3-2---|
B|-------------------------|---------------------3-|
G|---------------4-5-7-5-4-|-4-5-5-----------------|
D|-----------5-7-----------|-----------------------|
A|-----5-------------------|-----------------------|
E|-5-7---7-----------------|-----------------------|


BRIDGE/OUTRO: (3:34) (play softer starting on the 2nd half)
e|----------------|----------------|----------------|----------------|
B|----------------|----------------|----------------|----------------|
G|----------------|-5--------------|----------------|-5-----5-5-5--5-|
D|-2--------------|-5--------------|-2--------------|-5-----5-5-5--5-|
A|-2--------------|-3--------------|-2--------------|-3-----3-3-3--3-|
E|-0--------------|----------------|-0--------------|----------------|

e|----------------|----------------|----------------|----------------|
B|----------------|----------------|----------------|----------------|
G|----------------|----------------|----------------|----------------|
D|-2--------------|-5--------------|----------------|-5--------------|
A|-2--------------|-3--------------|----------------|-3--------------|
E|-0--------------|----------------|-0--------------|----------------|

e|----------------|----------------|
B|----------------|----------------|
G|----------------|----------------|  THE
D|----------------|----------------|  END!
A|-3--------------|----------------|
E|----------------|----------------|