Song name
# A B C D E F G H I J K L M N O P Q R S T U V W X Y Z

Templar - Impossible tab

Templar - Impossible
Tabbed By: Mitchell
EMail: Mitchell_J@hotmail.com
CD: Under The Sun
Tuning: Dropped D (DADGBe)
h= hammer on   ^&r= bend and release   /=slide   V= vibrato

Here's one of Templar's detailed tunes, it actually has a solo! Too bad I'm
not good at picking up wah solos, so you'll all have to live without it.
This is the whole song outside the solo, tell me whatcha think about it!

Intro/Chorus:
e ------------------------------|--------------------------------------
B ------------------------------|--------------------------------------
G ------------------------------|-5-5-5-5-5-5-5-5----------------------
D ------------(0)---------------|-5-5-5-5-5-5-5-5--5-5-5-5--0-0-0-0-0--
A -7-7---0-8--(0)---7-7---0-8---|-3-3-3-3-3-3-3-3--5-5-5-5--0-0-0-0-0--
D ------------(0)---------------|------------------5-5-5-5--0-0-0-0-0--

Verse:
e -------------------------------------------------
B -------------------------------------------------
G -------------------------------------------------
D -0-0-2------0---0-0-2------0-0-2------0---0-0-2--
A -0-0-2------0---0-0-2------0-0-2------0---0-0-2--
D -0-0-2------0---0-0-2------0-0-2------0---0-0-2--

Pre-chorus/underneath solo:
e ----------------------------------------------
B ----------------------------------------------
G ----------------------------------------------
D -0h2-2-2--0h2-2-2--0h2-2-2--0h2-2-2--5-5-5-5--
A -0h2-2-2--0h2-2-2--0h2-2-2--0h2-2-2--5-5-5-5--
D -0h2-2-2--0h2-2-2--0h2-2-2--0h2-2-2--5-5-5-5--

Second solo:
e ------------------------------|-------------------------------------
B -------^&r--------^&r---------|-------^&r--------^&r----------------
G -9-11--11---9-11--11---9-7h9--|-9-11--11---9-11--11---9-7h9----7/9--
D ------------------------------|----------------------------------V--
A ------------------------------|-------------------------------------
D ------------------------------|-------------------------------------

Ending:
e ---------------------------------|---------------------------
B ---------------------------------|---------------------------
G ---------------------------------|---------------------------
D -2-2--0-2--0-2--5-5-5--7--7-7-7--|-2-2--0-2--0-2--5-5-5--8~--
A -2-2--0-2--0-2--5-5-5--7--7-7-7--|-2-2--0-2--0-2--5-5-5--8~--
D -2-2--0-2--0-2--5-5-5--7--7-7-7--|-2-2--0-2--0-2--5-5-5--8~--

Chords: D5: 000xxx   E5: 222xxx   G5: 555xxx   A5: 777xxx   A#5: 888xxx   C5: x355xx

Tab originally from http://diehardtabs.tripod.com
Tap to rate this tab
# A B C D E F G H I J K L M N O P Q R S T U V W X Y Z