Song name
# A B C D E F G H I J K L M N O P Q R S T U V W X Y Z

Templars - Eastern Europe tab

http://www.vh1.com/artists/az/templars/artist.jhtml

Band: Templars
Song: Eastern Europe


tabbed by jam9383@yahoo.com


Intro

e---------------------------------------------------------------------|
B--11--11-14--14-13--13--9----6p5--2--2-1-1--6-6-9--------------------|
G---------------------------------------------------------------------|
D---------------------------------------------------------------------|
A---------------------------------------------------------------------|
E---------------------------------------------------------------------|

Intro Chords played with single notes

e---------------------------------------------------------------------|
B---------------------------------------------------------------------|
G--8-8-8-8-8-8-6-6-6-6-6-6-8-8-8-8-8-8--------------------------------|
D--8-8-8-8-8-8-6-6-6-6-6-6-8-8-8-8-8-8--3-3-3-3-3-3-3-8-8-8-8-8-------|
A--6-6-6-6-6-6-4-4-4-4-4-4-6-6-6-6-6-6--3-3-3-3-3-3-3-8-8-8-8-8-------|
E---------------------------------------1-1-1-1-1-1-1-6-6-6-6-6-------|

e---------------------------------------------------------------------|
B---------------------------------------------------------------------|
G---------------------------------------------------------------------|
D--6-6-6-8-8-8-6-6-6-8-8-9-3------------------------------------------|
A--6-6-6-8-8-8-6-6-6-8-8-9-3------------------------------------------|
E--4-4-4-6-6-6-4-4-4-6-6-7-1------------------------------------------|

Verse

e---------------------------------------------------------------------|
B---------------------------------------------------------------------|
G---------------6-6-x-x-x-x-8-8-x-x-x-x-10-6--------------------------|
D--8-8-x-x-x-x--6-6-x-x-x-x-8-8-x-x-x-x-10-6-6------------------------|
A--8-8-x-x-x-x--4-4-x-x-x-x-6-6-x-x-x-x-8--4-6------------------------|
E--6-6-x-x-x-x-------------------------------4------------------------|

Chorus

e---------------------------------------------------------------------|
B---------------------------------------------------------------------|
G---------------------------------------------------------------------|
D--8-8-8-8-8-6-6-6-6-6-8-8-8-8-8-6-6-6-6-6-10-10-10-10-10-10----------|
A--8-8-8-8-8-6-6-6-6-6-8-8-8-8-8-6-6-6-6-6-10-10-10-10-10-10----------|
E--6-6-6-6-6-4-4-4-4-4-6-6-6-6-6-4-4-4-4-4-8--8--8--8--8--8-----------|

e---------------------------------------------------------------------|
B---------------------------------------------------------------------|
G--6-6-6-6-6-6-8-8-8--------------------------------------------------|
D--6-6-6-6-6-6-8-8-8--------------------------------------------------|
A--4-4-4-4-4-4-6-6-6--------------------------------------------------|
E---------------------------------------------------------------------|

Outro

e---------------------------------------------------------------------|
B---------------------------------------------------------------------|
G--5-5-5-5-5-5-5-5-7-7-7-9-9-9-9-9-9-9-9------------------------------|
D--5-5-5-5-5-5-5-5-7-7-7-9-9-9-9-9-9-9-9------------------------------|
A--3-3-3-3-3-3-3-3-5-5-5-7-7-7-7-7-7-7-7------------------------------|
E---------------------------------------------------------------------|

any comments/corrections contact me, please rate
Tap to rate this tab
# A B C D E F G H I J K L M N O P Q R S T U V W X Y Z