Song name
# A B C D E F G H I J K L M N O P Q R S T U V W X Y Z

Templars - Make Your Mark tab

Band: Templars
Song: Make Your Mark


tabbed by jam9383@yahoo.com


Verse

e---------------------------------------------------------------------|
B---------------------------------------------------------------------|
G---7-----7-----12-----10---------------------------------------------|
D---7-----7-----12-----10-----10--------10----------------------------|
A---5-----5-----10-----8------10--------10----------------------------|
E-----------------------------8---------8-----------------------------|

Pre-Chorus

e---------------------------------------------------------------------|
B---------------------------------------------------------------------|
G---12-------12-----------10------------------------------------------|
D---12-------12-----------10------------10----------------------------|
A---10-------10-----------8-------------10----------------------------|
E---------------------------------------8-----------------------------|

Chorus

e---------------------------------------------------------------------|
B---------------------------------------------------------------------|
G---7-7-7-7-7-7--12-12-12-12-12-12--10-10-10-10-10-10-----------------|
D---7-7-7-7-7-7--12-12-12-12-12-12--10-10-10-10-10-10-----------------|
A---5-5-5-5-5-5--10-10-10-10-10-10--8--8--8--8--8--8------------------|
E---------------------------------------------------------------------|

e---------------------------------------------------------------------|
B---------------------------------------------------------------------|
G---------------------------------------------------------------------|
D---10-10-10-10-10-10-------------------------------------------------|
A---10-10-10-10-10-10-------------------------------------------------|
E---8--8--8--8--8--8--------------------------------------------------|

Solo/Outro

x2                                 x2
e------------------------------|---------------------------------------|
B--19p18p16-19p18p16-19p18p16--|18p17p15-18p17p15-18p17p15-------------|
G------------------------------|---------------------------------------|
D------------------------------|---------------------------------------|
A------------------------------|---------------------------------------|
E------------------------------|---------------------------------------|

e------16-----16---------16--19-18-16---20b-18b-17b--------------------|
B--19b----19b----19b-19b----------------------------18b----------------|
G----------------------------------------------------------------------|
D----------------------------------------------------------------------|
A----------------------------------------------------------------------|
E----------------------------------------------------------------------|

e--19-18-16-16-18-19-21-19-18~-----------------------------------------|
B----------------------------------16h18h19-16h18h19-16h18h19-16~------|
G----------------------------------------------------------------------|
D----------------------------------------------------------------------|
A----------------------------------------------------------------------|
E----------------------------------------------------------------------|

any comments/corrections contact me, please rate
Tap to rate this tab
 
# A B C D E F G H I J K L M N O P Q R S T U V W X Y Z