Song name
# A B C D E F G H I J K L M N O P Q R S T U V W X Y Z

Temple Of The Dog - Pushin Forward Back tab

-|---------------------------------|-------------------------|----------------|
-|---------------------------------|-------------------------|----------------|
-|---------------------------------|-------------------------|----------------|
-|-9---9---7--9---9---9---7--9--7--|-9---9---7--9--x--9-\----|----------------|
-|-9---9---7--9---9---9---7--9--7--|-9---9---7--9--x--9-\----|----------------|
-|-7---7---7--7---7---7---7--7--7--|-7---7---7--7--x--7-\----|----------------|
 Intro, Stone                   11x

-|------------------------------------------------------------------|---------|
-|-19*vvvvvvvvvvvvvvvvvvvvvvvvvvvvvv--------------------------------|---------|
-|-------------------------------------------------------7--7--7-\--|---------|
-|------------------------------------------------------------------|---------|
-|------------------------------------------------------------------|---------|
-|-------------------------------------------------------7--7--7-\--|---------|
 Intro, Mike (*whammy bar dives)(could be feedback)

-|---------------------------------|------------------------------------------|
-|---------------------------------|------------------------------------------|
-|---------------------------------|------------------------------------------|
-|---------------------------------|------------------------------------------|
-|---------------------------------|------------------------------------------|
-|-7---7---5--7---7---7---5--7--5--|------------------------------------------|
 Verse, Stone+Mike(palm mute)    8x

-|-------------------|-------------------------------------------------------|
-|-------------------|-------------------------------------------------------|
-|-------------------|-7---7---7---------------------------------------------|
-|-------------------|---------------9p7-9p7-9p7-------------------9--9--9---|
-|-------------------|-------------------------------------------------------|
-|---7p5-7p5-7p5-----|-----------------------------7p5-7p5-0-0-0-0-----------|
 Pre-Chorus, Stone 5x

-|-------------------|-------------------------------------------------------|
-|-------------------|-------------------------------------------------------|
-|-------------------|-------------------------------------------------------|
-|-------------------|-------------------------------------------------------|
-|-------------------|-------------------------------------------------------|
-|---7p5-7p5-7p5-----|-7p5-7p5-7p5---7p5-7p5-7p5---7p5-7p5-0-0-0-0-7--7--7---|
 Pre-Chorus, Mike  5x

-|-----------------------------------|----------------------------|-----------|
-|-----------------------------------|----------------------------|-----------|
-|-----------------------------------|----------------------------|-----------|
-|-9---9---7--9---9---9---7--9--7----|-9---9---7--9--x--9-\---x-x-|-----------|
-|-9---9---7--9---9---9---7--9--7----|-9---9---7--9--x--9-\---x-x-|-----------|
-|-7---7---7--7---7---7---7--7--7----|-7---7---7--7--x--7-\---x-x-|-----------|
 Chorus, Stone                     7x

-|-----------------------------------|----------------------------------------|
-|-----------------------------------|----------------------------------------|
-|-----------------------------------|----------------------------------------|
-|-9---9-\---------------------------|----------------------------------------|
-|-x---x-----------------------------|----------------------------------------|
-|-7---7-\---------------------------|----------------------------------------|
 Chorus, Mike(Play every other time)4x

-|------------------------------------------------------------------|---------|
-|------------------------------------------------------------------|---------|
-|------------------------------------------------------------------|---------|
-|------------------------------------------------------------------|---------|
-|------------------------------------------------------------------|---------|
-|-7---7---5--7---7---7---5--7--5---7---7---5--7---7---7---5--7--5--|---------|
 Verse, Stone(palm mute)                                          3x

-|------------------------------------------------------------------|---------|
-|------------------------------------------------------------------|---------|
-|------------------------------------------------------------------|---------|
-|------------------------------------------------------------------|---------|
-|------------------------------------------------------------------|---------|
-|-7---7---5--7---7---7---5--7--5---7---7---5--7---7---7---5--7--5--|---------|
 Stone

-|------------------------------------------------------------------|---------|
-|------19*vvvvvvvvvvvvvvvvvvvvvv\----------------------------------|---------|
-|------------------------------------------------------------------|---------|
-|------------------------------------------------------------------|---------|
-|------------------------------------------------------------------|---------|
-|------------------------------------------------------------------|---------|
 Mike     *dive with whammy bar and vibrato at same time

-|--------------------|------------------------------------------------------|
-|--------------------|------------------------------------------------------|
-|--------------------|-7---7---7------------------------------------7--7----|
-|--------------------|---------------9p7-9p7-9p7--------------------7--7----|
-|--------------------|------------------------------------------------------|
-|---7p5-7p5-7p5------|-----------------------------7p5-7p5-7p5-7p5----------|
 Pre-Chorus, Stone 5x

-|---------------------------------------------------------------------------|
-|-------------*9b10---------------------------------------------------------|
-|-------------*9b11--------------7------------------------------------------|
-|--------------------------------7------------------------------------------|
-|---------------------------------------------------------------------------|
-|---------------------------------------------------------------------------|
 Pre-Chorus,Mike(*on 5th time)

-|----------------------------------|------------------------|----------------|
-|----------------------------------|------------------------|----------------|
-|----------------------------------|------------------------|----------------|
-|-9---9---7--9---9---9---7--9--7---|-9---9---7--9--x--9-\---|----------------|
-|-9---9---7--9---9---9---7--9--7---|-9---9---7--9--x--9-\---|----------------|
-|-7---7---7--7---7---7---7--7--7---|-7---7---7--7--x--7-\---|----------------|
 Chorus, Stone+Mike               7x

-|---------------------------------------------------------------------------|
-|--------------------------------------------------------------9--\---------|
-|-------------------------------------------------9--9--9-\----9--\--7--\---|
-|----/11-9----------9------------------/11-9-----11-11-11-\----------7--\---|
-|----------11\--/11---11-10-9-7--------------11-----------------------------|
-|-9-----------------------------9---9---------------------------------------|
 Bridge, Stone+Mike

-|---------------------------------------------------|------------------------|
-|-----------------------------------------------9---|------------------------|
-|-----------------------------------------------9---|------------------------|
-|----/11-9----------9------------------/11-9----9---|------------------------|
-|----------11\--/11---11-10-9-7--------------11-----|------------------------|
-|-9-----------------------------9---9---------------|------------------------|


-|-7----------------------------------------7--------------------------|------|
-|---------------------------------------------------------------------|------|
-|---------------------------------------------------------------------|------|
-|---------------------------------------------------------------------|------|
-|---------------------------------------------------------------------|------|
-|---------------------------------------------------------------------|------|
 Stone

-|-7h10p7------7h10p7--------------------------------------------------|------|
-|-------7h10p7------7h10p7-7h10p7-------------------------------------|------|
-|--------------------------------9p7---7---7h9p7-7vvvvv---9p7h9p7h9p7-|------|
-|------------------------------------9---9--------------9-------------|------|
-|---------------------------------------------------------------------|------|
-|---------------------------------------------------------------------|------|
 Mike-this is a guess(w/heavy wah)

-|-7----------------------7------------------------------------|--------------|
-|-------------------------------------------------------------|--------------|
-|-------------------------------------------------------------|--------------|
-|-------------------------------------------------------------|--------------|
-|-------------------------------------------------------------|--------------|
-|-------------------------------------------------------------|--------------|
 Stone

-|---------------------------------------10p7-10b12-10b12-10\--|--------------|
-|------------------------7h10p7-12p10p7-----------------------|--------------|
-|---7-9b10-7h9p7----------------------------------------------|--------------|
-|-9--------------7h9p7----------------------------------------|--------------|
-|----------------------9--------------------------------------|--------------|
-|-------------------------------------------------------------|--------------|
 Mike-more guessing

-|---------------------------------------------------------------------------|
-|-----------------------------------------------10--------------------------|
-|-7vvvvvv-9p7\6vvvv-6/9-4vvvvvv-4-6h7vvvv-9b11-----9b11-9b11-9b11-9b11vvvv--|
-|---------------------------------------------------------------------------|
-|---------------------------------------------------------------------------|
-|---------------------------------------------------------------------------|
 Stone                   With Fill 1       grad.bend

-|*10b12-12-12-12-12-12-12-12r10-7h10p7--7h10p7--7h10p7--7h10p7--7h10\--|--|
-|-------------------------------------10------10------10------10-------|--|
-|----------------------------------------------------------------------|--|
-|----------------------------------------------------------------------|--|
-|----------------------------------------------------------------------|--|
-|----------------------------------------------------------------------|--|
 Fill 1-Mike hold bend-------| *3------------------------------------------|4 step bend

-|---------------------------------|---------------------|--------------------|
-|---------------------------------|---------------------|--------------------|
-|---------------------------------|---------------------|--------------------|
-|-9---9---7--9---9---9---7--9--7--|-9--9---7---7---9-\--|--------------------|
-|-9---9---7--9---9---9---7--9--7--|-9--9---7---7---9-\--|--------------------|
-|-7---7---7--7---7---7---7--7--7--|-7--7---7---7---7-\--|--------------------|
 Stone+Mike                      5x

-|-----------------------------------------------------|----------------------|
-|-----------------------------------------------------|----------------------|
-|-------------------------------------------x-\-------|----------------------|
-|-9-\---------------------------------------x-\-------|----------------------|
-|-9-\---------------------------------------x-\-------|----------------------|
-|-7-\-------------------------------------------15\---|----------------------|
 Drum and Vocal Interlude

-|----------------------------------|----------------------|------------------|
-|----------------------------------|----------------------|------------------|
-|----------------------------------|----------------------|------------------|
-|-9---9---7--9---9---9---7--9--7---|-9--9---7---7---9-\---|------------------|
-|-9---9---7--9---9---9---7--9--7---|-9--9---7---7---9-\---|------------------|
-|-7---7---7--7---7---7---7--7--7---|-7--7---7---7---7-\---|------------------|
 Stone-Outro                      7x

-|-----------------------|----------------------------------------------------|
-|---10p7h10p7h10p7------|----------------------------------------------------|
-|-----------------------|----------------------------------------------------|
-|-----------------------|----------------------------------------------------|
-|-----------------------|----------------------------------------------------|
-|-----------------------|----------------------------------------------------|
 Mike-Outro(w/wah) Play every once in awhile
Tap to rate this tab
 
# A B C D E F G H I J K L M N O P Q R S T U V W X Y Z