Song name
# A B C D E F G H I J K L M N O P Q R S T U V W X Y Z

Temple Of The Dog - Times Of Trouble tab

#################################################
Song: Times of trouble HARMONICA SOLO
Artist: Temple of the dog
Album: Temple of the dog
Tab author: budameat
Tuning: STANDARD
Notes: This is the Harmonica solo transcribed for standard guitar.
Some bends at the end may be questionable but in my opinion are ok.

THERE ARE NO SOLO TABS ON THIS PART OF THE SONG and I hope the tab is ok
or at least is a good template to work on in the future...
#################################################



 e(13)--------------------# slow then fast 1 bar #--------------------------------------|
 B-17b18r17-15--pb15r14b15--18p15h18p15h18.... ----15-13----12--------15----------------|
 G------------17-----------------------------------------12-----14b16----14b16-14b16-12-|
 D--------------------------------------------------------------------------------------|
 A--------------------------------------------------------------------------------------|
 E--------------------------------------------------------------------------------------|


 e---------------------------------15B17r15B17r15p12------------------------------|
 B-------12------12------15----15--------------------13-15^18r-12----12-bb-\(8)---|
 G-------12bb----12bb----14br--14b--------------------------------12~-------------|
 D-12-14------14------14----------------------------------------------------------|
 A--------------------------------------------------------------------------------|
 E--------------------------------------------------------------------------------|

 E--------10--10h13h10p0----------------------------------------------------------|
 A-12bb-13--13---------------------------------13B15r13p12----13B15r13p12---------|
 D------------------------12------12-12----12--------------12-------------12------|
 G------------------------12---14-------14----------------------------------------|
 B--------------------------------------------------------------------------------|
 e--------------------------------------------------------------------------------|


 E-15p17h15p13------------------------------|
 A-------------17--13-----------------------|
 D--------------------14B-14B-12~-14B-14B---|
 G------------------------------------------|
 B------------------------------------------|
 e------------------------------------------|




Tablature explanation:
######################
B       Full Bend
b       1/2  Bend
bb      1/4  Bend
pb      pre  Bend
~~~~~   Tremolo
^(#)    Bend to (#)
/       Slide up
\       Slide down
h       Hammer-on
p       Pull-off
(#)     Ghost note
%       Rest
######################
Tap to rate this tab
 
# A B C D E F G H I J K L M N O P Q R S T U V W X Y Z