Song name
# A B C D E F G H I J K L M N O P Q R S T U V W X Y Z

Temptations - Just My Imagination tab

Help us improve GuitareTab! Take a short survey!
Temptations
Just My Imagination
Tuning: Standard
Transcribed by Soch H.

Intro:
|------------------------------------------------|
|------------------------------------------------|
|------------------------------------------------|
|------------------------------------------------|
|-5=b6r-3-3s5-3---3--5s7-5s7--3---5-3------------|
|---------------5---------------------5-3--------|

|------------------------------------------------|
|------------------------------------------------|
|------------------------------------------------|
|------------------------------------------------|
|-5=b6r-3-3s5-3---3--5s7-5s7--3---5-3------------|
|---------------5---------------------5-3--------|

|------------------------------------------|
|------------------------------------------|
|------------------------------------------|
|-----------------------------------5------|
|-5=b6r-3-3s5-3---3------------5s7---------|
|---------------5----3---------------------|

I'll update some of the fills later. but here's the intro for now.
Related for Just My Imagination tab