Song name
# A B C D E F G H I J K L M N O P Q R S T U V W X Y Z

Ten Masked Men - Im Blue tab

Just the main riff from the song and the lead in as well. 

Main Riff
e|---------------------------------------------------------------|
B|---------------------------------------------------------------|
G|--------------------7-------------------------9--10------9--7--|
D|-----10----7--10------------9---10-----7--10-------------------|
A|-----------------------10--------------------------------------|
E|---------------------------------------------------------------|

Lead in to verse

e|-------------------------------------------------------------------------------------------|
B|-------------------------------------------------------------------------------------------|
G|--------------------7-------------------------9--10------9--7------------------------------|
D|-----10----7--10------------9---10-----7--10-----------------------10---7--10--9--0--5--7--|
A|-----------------------10------------------------------------------------------------------|
E|-------------------------------------------------------------------------------------------|

That about it, and i cbf adding the chords to play and such. SeC RePReSeNT!~
Tap to rate this tab
 
# A B C D E F G H I J K L M N O P Q R S T U V W X Y Z