Song name
# A B C D E F G H I J K L M N O P Q R S T U V W X Y Z

Ten Second Epic - Between Today And Tomorrow tab

e --4-5-7-5-4------|
B -5----------5----| x3
G -----------------|
D -----------------|
A -----------------|
E -----------------|

e -----------------|
B -----------------| x3
G ------------9----|
D ------------9----|
A ------------7----|
E -----------------|

e --4-5-7-5-4----4-5-7-5-4------------------------------|
B -5---------5--5----------5-----5--7--5------5--7--5---|
G ----------------------------6-6--6--6--6-5-5--5--5--5-|
D ------------------------------------------------------|
A ------------------------------------------------------|
E ------------------------------------------------------|

e ------------------------------------------------------|
B ------------------------------------------------------|
G -9--------------------------6------------5------------|
D -9--x16---------------------6--x8--------5--x8--------|
A -7--------------------------4------------3------------|
E ------------------------------------------------------|
Tap to rate this tab
# A B C D E F G H I J K L M N O P Q R S T U V W X Y Z