Song name
# A B C D E F G H I J K L M N O P Q R S T U V W X Y Z

Ten Second Epic - Welcome To Wherever You Are tab

Hi guys, I only found the basic tab for this song, which is good enough but it didn't 
have the solo so I thought I'd pay back this community by tabbing out.
It's not 100%, mostly the last few notes require a bit more but it's mostly there.


e|--------------8----------------8-10--------------8----8----8---------------|
B|-----------10---10-8--------10------8---------10---10---10---10b/8---------|
G|------7-10-----------10-7-------------10-7-------------------------10-7----|
D|-7-10--------------------h10--------------h10------------------------------|
A|---------------------------------------------------------------------------|
E|---------------------------------------------------------------------------|

e|-----------------------------------------------------------------8---10---8---10---10--10--1717|
B|------------------------------------------------------------10-10--10---10--10---10--10--15----|
G|-----10-----10-----10-----10h12p10-----10-----10-----10----------------------------------------|
D|10h12--10h12--10h12--10h12--------10h12--10h12--10h12--10h12-----------------------------------|
A|-----------------------------------------------------------------------------------------------|
E|-----------------------------------------------------------------------------------------------|

If you have any problems then listen out for the timing in the song, it's not too hard.
Tap to rate this tab
 
# A B C D E F G H I J K L M N O P Q R S T U V W X Y Z