Song name
# A B C D E F G H I J K L M N O P Q R S T U V W X Y Z

Ten Yard Fight - Dont Come Back tab

Help us improve GuitareTab! Take a short survey!
Artist:  Ten Yard Fight
Song:  Don't Come Back
Album:  The Only Way
Tabbed by:  Rick
AIM:  rickrack97

Chords:

A5   (x022xx)B5  (x244xx)
Bb5  (x133xx)F#2 (x9-11-11xx)
C5   (x355xx)G5  (355xxx)
D5   (x577xx)
F5   (133xxx)


Intro/Verse:

E|-----------------------------|
B|-----------------------------|
G|-2-2--2-5-5--5-7-7--7-3-3-3--|
D|-2-2--2-5-5--5-7-7--7-3-3-3--|
A|-0-0--0-3-3--3-5-5--5-1-1-1--|
E|-----------------------------|

Chorus:

E|--------------------------------------------------|
B|--------------------------------------------------|
G|--4-4-4-4-11-11-11-11--2-2--2-5-5--5-7-7--7-3-3-3-|
D|--4-4-4-4-11-11-11-11--2-2--2-5-5--5-7-7--7-3-3-3-|
A|--2-2-2-2--9--9--9--9--0-0--0-3-3--3-5-5--5-1-1-1-|
E|--------------------------------------------------|

This is played right before the second verse:

E|-----------------------------------------|
B|---------------------------------------S-|
G|----------5-----2-2--2-5-5--5-7-7--7-3-T-|
D|-3--------5-5---2-2--2-5-5--5-7-7--7-3-O-|
A|-3--------3-5---0-0--0-3-3--3-5-5--5-1-P-|
E|-1----------3----------------------------|

Ending:

E|----------------|
B|----------------|
G|-2-----------3--|
D|-2------3----3--|  x2
A|-0------3----1--|
E|--------1-------|

continued: played x4, x2 not palm muted, then x2 palm muted
E|-----------------------------------------------------------------|
B|-----------------------------------------------------------------|
G|-2-2-2-2-2-2-2-2-2-2-2-2-2-2-2-2-----------------3-3-3-3-3-3-3-3-|
D|-2-2-2-2-2-2-2-2-2-2-2-2-2-2-2-2-3-3-3-3-3-3-3-3-3-3-3-3-3-3-3-3-|
A|-0-0-0-0-0-0-0-0-0-0-0-0-0-0-0-0-3-3-3-3-3-3-3-3-1-1-1-1-1-1-1-1-|     
E|---------------------------------1-1-1-1-1-1-1-1-----------------|

That should be it.  Later.
Related for Dont Come Back tab