Guitaretab - guitar tabs
Song name
# A B C D E F G H I J K L M N O P Q R S T U V W X Y Z

Ten Years After - Good Morning Little Schoolgirl tab

e|----------------------------------------------|
B|----------------------------------------------|
G|----------------------------------------------|
D|-222222-0---------------222222-0--------------|    x8
A|----------2--2-------------------2--2---------|
E|---------------0-3-0------------------0-h3~~--|
[ Tab from: http://www.guitaretab.com/t/ten-years-after/145159.html ]
e|-------------------------------------------------------------------|
B|-------------------------------------------------------------------|
G|---------------------------12--------------------------------h12b--|    x8
D|-141414141414-12--------------14----141414141414-12----------------|
A|-----------------14--14-----------------------------14-14----------|
E|------------------------12--------------------------------12-------|

And then Alvin Lee busts out a solo that i have no clue how to play.  Usually i just 
it and mess around with the riffs and the blues penatonic scale in E.  but this should be 
to get you started.
Related for Good Morning Little Schoolgirl tab
×
Best way to learn
"Good Morning Little Schoolgirl"