Song name
# A B C D E F G H I J K L M N O P Q R S T U V W X Y Z

Ten Years After - You Give Me Loving tab

Key: probably Am
Album: Recorded Live


Intro:

E |-----------------------------------------------|
B |-----------------------------------------------|
G |--------9-12-12--7-9---------9-12-12--7-9------|      x8
D |---9-12-----------------9-12-------------------|
A |-----------------------------------------------|
E |-----------------------------------------------|


Couplet:

E |-----------------------------------------------|
B |-----------------------------------------------|
G |--------9-12-12--7-9---------9-12-12--7-9------|
D |---9-12-----------------9-12-------------------|
A |-----------------------------------------------|
E |-----------------------------------------------|

E |-----------------------------------------------|
B |-----------------------------------------------|
G |--------9-12-12--7-9---------9-12-14h12-9-7-9--|
D |---9-12-----------------9-12-------------------|
A |-----------------------------------------------|
E |-----------------------------------------------|

E |-----------------------------------------------|
B |-----------------------------------------------|
G |--------9-12-12--7-9---------9-12-12--7-9------|
D |---9-12-----------------9-12-------------------|
A |-----------------------------------------------|
E |-----------------------------------------------|

E |-----------------------------------------------|
B |-----------------------------------------------|
G |--------9-12-12--7-9---------------------------|
D |---9-12----------------------------------------|
A |-----------------------------------------------|
E |-----------------------------------------------|

E |---------12-12---15----------------------------|
B |---12-15------15-------------12-10/12----------|
G |-----------------------12-14----------12-9-----|      x3
D |-----------------------------------------------|
A |-----------------------------------------------|
E |-----------------------------------------------|

E |-----------------------------------------------|
B |---------------15------------------------------|
G |---12-14-15-16----16h14-12----12---------------|      repeat main riff...
D |---------------------------14---14-12-14-------|
A |-----------------------------------------------|
E |-----------------------------------------------|
Tap to rate this tab
 
# A B C D E F G H I J K L M N O P Q R S T U V W X Y Z