Song name
# A B C D E F G H I J K L M N O P Q R S T U V W X Y Z

Ten Years After - Portable People tab

-------------------------------------------------------------------------------
                             Portable People - Ten Years After
-------------------------------------------------------------------------------
Album : Alvin Lee and Company (1972)
Tempo : 167
E-mail: gwendal.mollo@orange.fr
Tabbed by: newg

The guitar is a open A (EAEADbE)

Live version : http://www.youtube.com/watch?v=Qna-9B0CFb8


  Intro :

E |------------------------------------------------------------------------|
C#|--5--8-----------8-----------------------8-----------5s----------3s-----|
A |--4--7-----------7-----------------------7-----------4s----------2s-----|
E |-----0-----------0-----------------------0------------------------------|
A |------------------------------------------------------------------------|
E |------------------------------------------------------------------------|


--------------------------|
5-------------------------|
4-------------------------|
--------------------------|
--------------------------|
--------------------------|


-------------------------------------------------------------------------------|
--0-----------------------------------------------1--3-----------3-------------|
--0-----------------------------------------------2--4-----------4-------------|
--0-----------------------0----------------------------------------------------|
-------------------------------------------------------------------------------|
-------------------------------------------------------------------------------|


-----------------------|----------------------------|
---------3-------------|----------------------------|
---------4-------------|--2h-0--------------0h-2----|
-----------------------|--------2-----0h-2----------|
-----------------------|----------------------------|
-----------------------|----------------------------|

        ^  v     ^  v  ^             ^  v     ^  v  ^
--------5--5-----5--5--5----|--------5--5-----5--5--5----||
--------0--0-----0--0--0----|--------0--0-----0--0--0----||
--0-----0--0-----0--0--0----|--------0--0-----0--0--0----||
-----------5--------5-------|--5--------5--------5-------||
----------------------------|--0-------------------------||
----------------------------|----------------------------||

Verses :
       ^  v     ^  v  ^
-------5--5-----5--5--5----|
-------0--0-----0--0--0----|
o------0--0-----0--0--0----|
o5--------5--------5-------|
-0-------------------------|
---------------------------|

                          ^
--------------------------5------------------------------------------------|
--------------------------0------------------------------------------------|
--------------------------0-----------------------2s-4---------------------|
--------------------------5--------------------------------------0h-----2--|
--0------------------------------------------------------------------------|
---------------------------------------------------------------------------|


-----------------------|
-----------------------|
---------0-------------|
-----------------------|
-----------------------|
-----------------------|

                                                                             ^
---------------------------------------------------------------------------|
------------------------------------------------------------------------0--|
---------0-----------2s-4-----------------------------------0-----------0--|
-----------------------------------------0h----------2------------------0--|
---------------------------------------------------------------------------|
---------------------------------------------------------------------------|

                                ^  v     ^  v  ^
-----------------------|--------5--5-----5--5--5----|
-----------------------|--------0--0-----0--0--0----|
-----------------------|--------0--0-----0--0--0----|
-----------------------|--5--------5--------5-------|
-----------------------|--0-------------------------|
-----------------------|----------------------------|

                    ^  v
--------7.----------5--5----|
--------7.----------0--0----|
--------7.----------0--0----|
--------7.----5--------5----|
--7-----------0-------------|
----------------------------|

                          ^
--------------------------5------------------------------------------------|
--------------------------0------------------------------------------------|
--------------------------0-----------------------2s-4---------------------|
--------------------------5--------------------------------------0h-----2--|
--0------------------------------------------------------------------------|
---------------------------------------------------------------------------|


-----------------------|
-----------------------|
---------0-------------|
-----------------------|
-----------------------|
-----------------------|

                                                                             ^
---------------------------------------------------------------------------|
------------------------------------------------------------------------0--|
---------0-----------2s-4-----------------------------------0-----------0--|
-----------------------------------------0h----------2------------------0--|
---------------------------------------------------------------------------|
---------------------------------------------------------------------------|


Chorus :
         v  ^     v  ^  v       ^  ^
|--------5--------5-----5----|--5--3----|
|--------5--5-----5--5--5----|--5--3----|
|--------5--5-----5--5--5----|--5--3----|
|-----------5--------5-------|--5--3----|
|--5-------------------------|--5.-3----|
|----------------------------|----------|

                          ^
--------------------------5-------------------------------------------------|
--------------------------0-------------------------------------------------|
--------------------------0-----------------------2s-4----------------------|
--------------------------5--------------------------------------0h-------2-|
--0-------------------------------------------------------------------------|
----------------------------------------------------------------------------|


-----------------------|
-----------------------|
---------0-------------|
-----------------------|
-----------------------|
-----------------------|

                                                                             ^
---------------------------------------------------------------------------|
------------------------------------------------------------------------0--|
--------------0-----------2s-4------------------------------0-----------0--|
-----------------------------------------0h----------2------------------0--|
---------------------------------------------------------------------------|
---------------------------------------------------------------------------|

                          ^     v  ^     v  ^          ^  ^
-----------------------|--7-----7--7-----7--7-------|--5.-3----|
-----------------------|--7-----7--7-----7--7-------|--5.-3----|
-----------------------|--7-----7--7-----7--7-------|--5.-3----|
-----------------------|--7-----7--7-----7--7-------|--5.-3----|
-----------------------|--7-----7--7-----7--7-------|--5.-3----|
-----------------------|----------------------------|----------|

                          ^
--------------------------5------------------------------------------------|
--------------------------0------------------------------------------------|
--------------------------0-----------------------2s-4---------------------|
--------------------------5--------------------------------------0h-----2--|
--0------------------------------------------------------------------------|
---------------------------------------------------------------------------|


-----------------------|
-----------------------|
---------0-------------|
-----------------------|
-----------------------|
-----------------------|

                                                                             ^
---------------------------------------------------------------------------|
------------------------------------------------------------------------0--|
--------------0-----------2s-4------------------------------0-----------0--|
-----------------------------------------0h----------2------------------0--|
---------------------------------------------------------------------------|
---------------------------------------------------------------------------|




Bridge
-------------0-------------|----------------------------|
----------0-----0----------|----------------------------|
o------0-----------0-------|--------5--5----------------|
o---0-----------------0----|-----5--------0-------------|
-0-------------------------|--5-------------------------|
---------------------------|----------------------------|


--------------0-------------|---------------------------||-------||
-----------0-----0----------|-----------7---------------||-------||
--------0-----------0-------|--------7-----------0L----o||--0----||
-----0-----------------0----|-----7-----------0--------o||-------||
--0-------------------------|--7-----------0------------||-------||
----------------------------|---------------------------||-------||


Riff Intro
Verse x2
Chorus
Riff Intro
Bridge
Riff Intro
Verse x2
Chorus
Riff Intro
Bridge
Tap to rate this tab
# A B C D E F G H I J K L M N O P Q R S T U V W X Y Z