Song name
# A B C D E F G H I J K L M N O P Q R S T U V W X Y Z

Ten Years After - The Band With No Name tab

---------------------------------------------------------------------------
                  THE BAND WITH NO NAME  Ten Years After
                                (Alvin Lee)
                                Watt [1970]
---------------------------------------------------------------------------

Tabbed by: varannion
Email:     dm_hughes1@hotmail.com

Tuning: standard

'The Band With No Name' is a short (1:36) guitar instrumental comprising 36 
bars: a 4-bar intro and two 8-bar themes, both of which are repeated. Think 
of it as an Alvin Lee meets Ennio Morricone piece. It certainly wouldn't be 
out of place on the soundtrack of a Sergio Leone spaghetti western or even a 
Quentin Tarantino movie.




    12-string acoustic guitar
      Dm
e|----------------------------|--------------------------|
B|----------5--6--5--6--------|--------5--6--5--6--------|
G|-------7--------------7-----|-----7--------------7-----|
D|----7--------------------7--|--7--------------------7--|
A|----------------------------|--------------------------|
E|----------------------------|--------------------------|



      Dm
e|----------------------------|--------------------------|
B|----------5--6--5--6--------|--------5--6--5--6--------|
G|-------7--------------7-----|-----7--------------7-----|
D|----7--------------------7--|--7--------------------7--|
A|----------------------------|--------------------------|
E|----------------------------|--------------------------|
 |  6-string electric guitar w/heavy tremolo
e|----------------------------|--------------------------|
B|----------------------------|--------------------------|
G|----------------------------|--------------------------|
D|----------------------------|--------------------0--2--|
A|----------------------------|-----------------0--------|
E|----------------------------|--------------------------|



      F                          C
e|----------------------------|--------------------------|
B|----------5--6--5--6--------|--------3--5--3--5--------|
G|-------7--------------7-----|-----5--------------5-----|
D|----7--------------------7--|--5--------------------5--|
A|----------------------------|--------------------------|
E|----------------------------|--------------------------|
 |
e|----------------------------|--------------------------|
B|----------------------------|--------------------------|
G|----------------------0-----|--------------------------|
D|----3--------------------3--|--2--0--------------------|
A|----------------------------|--------3--------------0--|
E|----------------------------|--------------------------|



     Dm
e|----------------------------|--------------------------|
B|----------5--6--5--6--------|--------5--6--5--6--------|
G|-------7--------------7-----|-----7--------------7-----|
D|----7--------------------7--|--7--------------------7--|
A|----------------------------|--------------------------|
E|----------------------------|--------------------------|
 |
e|----------------------------|--------------------------|
B|----------------------------|--------------------------|
G|----------------------------|--------------------------|
D|----0-----------------------|--------------------0--2--|
A|----------------------------|-----------------0--------|
E|----------------------------|--------------------------|



      F                          C
e|----------------------------|--------------------------|
B|----------5--6--5--6--------|--------3--5--3--5--------|
G|-------7--------------7-----|-----5--------------5-----|
D|----7--------------------7--|--5--------------------5--|
A|----------------------------|--------------------------|
E|----------------------------|--------------------------|
 |
e|----------------------------|--------------------------|
B|----------------------------|--------------------------|
G|----------------------0-----|--------------------------|
D|----3--------------------3--|--2--0--------------------|
A|----------------------------|--------3--------------0--|
E|----------------------------|--------------------------|



     Dm
e|----------------------------|--------------------------|
B|----------5--6--5--6--------|--------5--6--5--6--------|
G|-------7--------------7-----|-----7--------------7-----|
D|----7--------------------7--|--7--------------------7--|
A|----------------------------|--------------------------|
E|----------------------------|--------------------------|
 |
e|----------------------------|--------------------------|
B|----------------------------|--------------------------|
G|----------------------------|--------------------------|
D|----0-----------------------|--------------------3--5--|
A|----------------------------|-----------------3--------|
E|----------------------------|--------------------------|



      Am                           Gm
e|----5----5--5--5--5--5--5--5--|--3----3--3--3--3--3--3--3--|
B|----5----5--5--5--5--5--5--5--|--3----3--3--3--3--3--3--3--|
G|----5----5--5--5--5--5--5--5--|--3----3--3--3--3--3--3--3--|
D|----7----7--7--7--7--7--7--7--|--5----5--5--5--5--5--5--5--|
A|----7----7--7--7--7--7--7--7--|--5----5--5--5--5--5--5--5--|
E|----5----5--5--5--5--5--5--5--|--3----3--3--3--3--3--3--3--|
 |
e|------------------------------|----------------------------|
B|------------------------------|----------------------------|
G|------------------------------|----------------------------|
D|----7-----------------7h8p7\--|-\5-----------------5h7p5\--|
A|------------------------------|----------------------------|
E|------------------------------|----------------------------|



      F                            Edim7
e|----1----1--1--1--1--1--1--1--|--0----0--0--0--0--0--0--0--|
B|----1----1--1--1--1--1--1--1--|--2----2--2--2--2--2--2--2--|
G|----2----2--2--2--2--2--2--2--|--0----0--0--0--0--0--0--0--|
D|----3----2--2--2--2--2--2--2--|--2----2--2--2--2--2--2--2--|
A|----3----3--3--3--3--3--3--3--|--1----1--1--1--1--1--1--1--|
E|----1----1--1--1--1--1--1--1--|--0----0--0--0--0--0--0--0--|
 |
e|------------------------------|----------------------------|
B|------------------------------|----------------------------|
G|------------------------------|----------------------------|
D|---\3-----------------3h5p3\--|-\2-------------------------|
A|------------------------------|-------------------------0--|
E|------------------------------|----------------------------|



      Dm
e|----------------------------|--------------------------|
B|----------5--6--5--6--------|--------5--6--5--6--------|
G|-------7--------------7-----|-----7--------------7-----|
D|----7--------------------7--|--7--------------------7--|
A|----------------------------|--------------------------|
E|----------------------------|--------------------------|
 |
e|----------------------------|--------------------------|
B|----------------------------|--------------------------|
G|----------------------------|--------------------------|
D|----0-----------------------|--------------------------|
A|----------------------------|-----------------------0--|
E|----------------------------|--------------------------|



      Dm
e|----------------------------|--------------------------|
B|----------5--6--5--6--------|--------5--6--5--6--------|
G|-------7--------------7-----|-----7--------------7-----|
D|----7--------------------7--|--7--------------------7--|
A|----------------------------|--------------------------|
E|----------------------------|--------------------------|
 |
e|----------------------------|--------------------------|
B|----------------------------|--------------------------|
G|----------------------------|--------------------------|
D|----0-----------------------|--------------------0--2--|
A|----------------------------|-----------------0--------|
E|----------------------------|--------------------------|



      F                          C
e|----------------------------|--------------------------|
B|----------5--6--5--6--------|--------3--5--3--5--------|
G|-------7--------------7-----|-----5--------------5-----|
D|----7--------------------7--|--5--------------------5--|
A|----------------------------|--------------------------|
E|----------------------------|--------------------------|
 |
e|----------------------------|--------------------------|
B|----------------------------|--------------------------|
G|----------------------0-----|--------------------------|
D|----3--------------------3--|--2--0--------------------|
A|----------------------------|--------3--------------0--|
E|----------------------------|--------------------------|



     Dm
e|----------------------------|--------------------------|
B|----------5--6--5--6--------|--------5--6--5--6--------|
G|-------7--------------7-----|-----7--------------7-----|
D|----7--------------------7--|--7--------------------7--|
A|----------------------------|--------------------------|
E|----------------------------|--------------------------|
 |
e|----------------------------|--------------------------|
B|----------------------------|--------------------------|
G|----------------------------|--------------------------|
D|----0-----------------------|--------------------0--2--|
A|----------------------------|-----------------0--------|
E|----------------------------|--------------------------|



      F                          C
e|----------------------------|--------------------------|
B|----------5--6--5--6--------|--------3--5--3--5--------|
G|-------7--------------7-----|-----5--------------5-----|
D|----7--------------------7--|--5--------------------5--|
A|----------------------------|--------------------------|
E|----------------------------|--------------------------|
 |
e|----------------------------|--------------------------|
B|----------------------------|--------------------------|
G|----------------------0-----|--------------------------|
D|----3--------------------3--|--2--0--------------------|
A|----------------------------|--------3--------------0--|
E|----------------------------|--------------------------|



     Dm
e|----------------------------|--------------------------|
B|----------5--6--5--6--------|--------5--6--5--6--------|
G|-------7--------------7-----|-----7--------------7-----|
D|----7--------------------7--|--7--------------------7--|
A|----------------------------|--------------------------|
E|----------------------------|--------------------------|
 |
e|----------------------------|--------------------------|
B|----------------------------|--------------------------|
G|----------------------------|--------------------------|
D|----0-----------------------|--------------------3--5--|
A|----------------------------|-----------------3--------|
E|----------------------------|--------------------------|



      Am                           Gm
e|----5----5--5--5--5--5--5--5--|--3----3--3--3--3--3--3--3--|
B|----5----5--5--5--5--5--5--5--|--3----3--3--3--3--3--3--3--|
G|----5----5--5--5--5--5--5--5--|--3----3--3--3--3--3--3--3--|
D|----7----7--7--7--7--7--7--7--|--5----5--5--5--5--5--5--5--|
A|----7----7--7--7--7--7--7--7--|--5----5--5--5--5--5--5--5--|
E|----5----5--5--5--5--5--5--5--|--3----3--3--3--3--3--3--3--|
 |
e|------------------------------|----------------------------|
B|------------------------------|----------------------------|
G|------------------------------|----------------------------|
D|----7-----------------7h8p7\--|-\5-----------------5h7p5\--|
A|------------------------------|----------------------------|
E|------------------------------|----------------------------|



      F                            Edim7
e|----1----1--1--1--1--1--1--1--|--0----0--0--0--0--0--0--0--|
B|----1----1--1--1--1--1--1--1--|--2----2--2--2--2--2--2--2--|
G|----2----2--2--2--2--2--2--2--|--0----0--0--0--0--0--0--0--|
D|----3----2--2--2--2--2--2--2--|--2----2--2--2--2--2--2--2--|
A|----3----3--3--3--3--3--3--3--|--1----1--1--1--1--1--1--1--|
E|----1----1--1--1--1--1--1--1--|--0----0--0--0--0--0--0--0--|
 |
e|------------------------------|----------------------------|
B|------------------------------|----------------------------|
G|------------------------------|----------------------------|
D|---\3-----------------3h5p3\--|--\2------------------------|
A|------------------------------|-------------------------0--|
E|------------------------------|----------------------------|



      Dm
e|----------------------------|--------------------------|
B|----------5--6--5--6--------|--------5--6--5--6--------|
G|-------7--------------7-----|-----7--------------7-----|
D|----7--------------------7--|--7--------------------7--|
A|----------------------------|--------------------------|
E|----------------------------|--------------------------|
 |
e|----------------------------|--------------------------|
B|----------------------------|--------------------------|
G|----------------------------|--------------------------|
D|----0-----------------------|--------------------------|
A|----------------------------|-----------------------0--|
E|----------------------------|--------------------------|



      Dm
e|----------------------------|--5-----------------------|
B|----------5--6--5--6--------|--6-----------------------|
G|-------7--------------7-----|--7-----------------------|
D|----7--------------------7--|--7-----------------------|
A|----------------------------|--5-----------------------|
E|----------------------------|--------------------------|
 |
e|----------------------------|--------------------------|
B|----------------------------|--------------------------|
G|----------------------------|--------------------------|
D|----0-----------------------|--------------------------|
A|----------------------------|--------------------------|
E|----------------------------|--------------------------|





/    slide up
\    slide down
h    hammer-on
p    pull-off
mu   mute
pb   pre-bend
co   cut off
pr   partial release
bss  bend slightly sharp
~~   vibrato


=========================================================================  21 Jan 2014
Tap to rate this tab
# A B C D E F G H I J K L M N O P Q R S T U V W X Y Z