Song name
# A B C D E F G H I J K L M N O P Q R S T U V W X Y Z

Ten Years After - Good Mornig Little Schoolgirl tab

guitar1:
1:----------------------|
2:----------------------|
3:----------------------|
4:----------------------|   8x
5:--5-777752--00--------|
6:--------------0--3-0--|

guitar2:
1:------------------------------|
2:-----------------12~----------|
3:-----------------12~----------|   8x
4:--------------------(14-------|~)
5:------------------------------|
6:------------------------------|

the guitar2 musnīt play (14~~)
I hope thats correct,because i have listen the song 1x by a friend.
Good Luck its easy!
Tap to rate this tab
# A B C D E F G H I J K L M N O P Q R S T U V W X Y Z