Song name
# A B C D E F G H I J K L M N O P Q R S T U V W X Y Z

Ten2five - I Will Fly tab

Standard tuning:E-A-D-G-B-e

e:|--7/8/7---------------------------------------------------------|
B:|--------8--5---5--8--5-------------------------5--8-------------|
G:|-------------7---------7--5--7--5---7--5--7--5------7--5--7--5--|
D:|---------------------------------7------------------------------|
A:|----------------------------------------------------------------|
E:|----------------------------------------------------------------|


e:|--7/8/7----------------13--12--13--12----13--12-13--12--15------|
B:|--------8--5---5--8--5----------------13------------------------|
G:|-------------7--------------------------------------------------|
D:|----------------------------------------------------------------|
A:|----------------------------------------------------------------|
E:|----------------------------------------------------------------|

I'm Taufik,sorry if there's some mistake.
Tap to rate this tab
# A B C D E F G H I J K L M N O P Q R S T U V W X Y Z