Guitaretab - guitar tabs
Song name
# A B C D E F G H I J K L M N O P Q R S T U V W X Y Z

Tenacious D - The Metal tab

-------------------------------------------------------------------------------
			     THE METAL  Tenacious D
-------------------------------------------------------------------------------
Tabbed by: M.J.
Tuning: Standard

              Intro
e|---------------------------------------------------------------------------|
B|---------------------------------------------------------------------------|
G|---------------------------------------------------------------------------|
D|---------------------------------------------------------------------------|
A|-------------3-2h-0h-2h-0h-2h-3h-2h-0h---------------3-2h-0h-2h------------|
E|-0-0-0-3-0-0-----------------------------0-0-0-3-0-0-----------------------|

e|---------------------------------------------------------------------------|
B|---------------------------------------------------------------------------|
G|---------------------------------------------------------------------------|
D|--------------------------------------------5-3-2-3h-2h--------------------|
A|-------------3-2h-0h-2h-0h-2h-3h-2h-0h-----3-----------5-7-5-7-8-7-5-------|
E|-0-0-0-3-0-0-----------------------------1---------------------------------|

e|---------------------------------------------------------------------------|
B|---------------------------------------------------------------------------|
G|---------------------------------------------------------------------------|
D|---------------------------------------------------------------------------|
A|-------------3-2h-0h-2h-0h-2h-3h-2h-0h---------------3-2h-0h-2h------------|
E|-0-0-0-3-0-0-----------------------------0-0-0-3-0-0-----------------------|

e|---------------------------------------------------------------------------|
B|---------------------------------------------------------------------------|
G|---------------------------------------------------------------------------|
D|--------------------------------------------5-3-2-3h-2h--------------------|
A|-------------3-2h-0h-2h-0h-2h-3h-2h-0h-----3-----------5-7-5-7-8-7-5-------|
E|-0-0-0-3-0-0-----------------------------1---------------------------------|

e|---------------------------------------------------------------------------|
B|---------------------------------------------------------------------------|
G|---------------------------------------------------------------------------|
D|---------------------------------------------------------------------------|
A|-------------3-2h-0h-2h-0h-2h-3h-2h-0h---------------3-2h-0h-2h------------|
E|-0-0-0-3-0-0-----------------------------0-0-0-3-0-0-----------------------|

e|---------------------------------------------------------------------------|
B|---------------------------------------------------------------------------|
G|---------------------------------------------------------------------------|
D|--------------------------------------------5-3-2-3h-2h--------------------|
A|-------------3-2h-0h-2h-0h-2h-3h-2h-0h-----3-----------5-7-5-7-8-7-5-------|
E|-0-0-0-3-0-0-----------------------------1---------------------------------|

e|---------------------------------------------------------------------------|
B|---------------------------------------------------------------------------|
G|---------------------------------------------------------------------------|
D|---------------------------------------------------------------------------|
A|-------------3-2h-0h-2h-0h-2h-3h-2h-0h---------------3-2h-0h-2h------------|
E|-0-0-0-3-0-0-----------------------------0-0-0-3-0-0-----------------------|

e|---------------------------------------------------------------------------|
B|---------------------------------------------------------------------------|
G|---------------------------------------------------------------------------|
D|--------------------------------------------5-3-2-3h-2h--------------------|
A|-------------3-2h-0h-2h-0h-2h-3h-2h-0h-----3-----------5-7-5-7-8-7-5-------|
E|-0-0-0-3-0-0-----------------------------1---------------------------------|

e|---------------------------------------------------------------------------|
B|---------------------------------------------------------------------------|
G|---------------------------------------------------------------------------|
D|---------------------------------------------------------------------------|
A|-------------3-2h-0h-2h-0h-2h-3h-2h-0h---------------3-2h-0h-2h------------|
E|-0-0-0-3-0-0-----------------------------0-0-0-3-0-0-----------------------|

e|---------------------------------------------------------------------------|
B|---------------------------------------------------------------------------|
G|---------------------------------------------------------------------------|
D|--------------------------------------------5-3-2-3h-2h--------------------|
A|-------------3-2h-0h-2h-0h-2h-3h-2h-0h-----3-----------5-7-5-7-8-7-5-------|
E|-0-0-0-3-0-0-----------------------------1---------------------------------|

e|------------------------------------------------------------------------------|
B|------------------------------------------------------------------------------|
G|-----------------------------------9--7--9--7--9--10----9--7--9--7--12--11-10-|
D|-----------------------------------9--7--9--7--9--10----9--7--9--7--12--11-10-|
A|-----------------------------------7--5--7--5--7--8-----7--5--7--5--10--9--8--|
E|-0-0-0-3-0-0-0---0-0-0-3-0-0-0------------------------------------------------|

e|------------------------------------------------------------------------------|
B|------------------------------------------------------------------------------|
G|-----------------------------------9--7--9--7--9--10----9--7--9--7--12--11-10-|
D|-----------------------------------9--7--9--7--9--10----9--7--9--7--12--11-10-|
A|-----------------------------------7--5--7--5--7--8-----7--5--7--5--10--9--8--|
E|------------------------------------------------------------------------------|
     
                 Bridge
e|--7-----------------5-----------5-------3-----------3----------------------|
B|--------------8-----------7------------------------------------------------|
G|--------9--------------7-----------7----------5-----------1--2--0--2-------|
D|-----9-----------7--7--------7-------------5-----------5--5--3--2--3-------|
A|--7--------7----------------------------5--------5-------------------------|
E|---------------------------------------------------------------------------|
[ Tab from: http://www.guitaretab.com/t/tenacious-d/101409.html ]
e|---------------------------------------------------------------------------|
B|--8--------------8------7-----------7-----0-----------0--------------------|
G|----------9-------------------7--------------------------0-----------------|
D|------10------------10-----9--------------------2--------------------------|
A|--10---------10---------9--------9-----9-----2-----------------------------|
E|------------------------------------------0--------0-----------------------|
                main riff
e|---------------------------------------------------------------------------|
B|---------------------------------------------------------------------------|
G|---------------------------------------------------------------------------|
D|---------------------------------------------------------------------------|
A|-------------3-2h-0h-2h-0h-2h-3h-2h-0h---------------3-2h-0h-2h------------|
E|-0-0-0-3-0-0-----------------------------0-0-0-3-0-0-----------------------|

e|---------------------------------------------------------------------------|
B|---------------------------------------------------------------------------|
G|---------------------------------------------------------------------------|
D|--------------------------------------------5-3-2-3h-2h--------------------|
A|-------------3-2h-0h-2h-0h-2h-3h-2h-0h-----3-----------5-7-5-7-8-7-5-------|
E|-0-0-0-3-0-0-----------------------------1---------------------------------|


e|---------------------------------------------------------------------------|
B|---------------------------------------------------------------------------|
G|---------------------------------------------------------------------------|
D|---------------------------------------------------------------------------|
A|-------------3-2h-0h-2h-0h-2h-3h-2h-0h---------------3-2h-0h-2h------------|
E|-0-0-0-3-0-0-----------------------------0-0-0-3-0-0-----------------------|

e|---------------------------------------------------------------------------|
B|---------------------------------------------------------------------------|
G|---------------------------------------------------------------------------|
D|--------------------------------------------5-3-2-3h-2h--------------------|
A|-------------3-2h-0h-2h-0h-2h-3h-2h-0h-----3-----------5-7-5-7-8-7-5-------|
E|-0-0-0-3-0-0-----------------------------1---------------------------------|


e|---------------------------------------------------------------------------|
B|---------------------------------------------------------------------------|
G|---------------------------------------------------------------------------|
D|---------------------------------------------------------------------------|
A|-------------3-2h-0h-2h-0h-2h-3h-2h-0h---------------3-2h-0h-2h------------|
E|-0-0-0-3-0-0-----------------------------0-0-0-3-0-0-----------------------|

e|---------------------------------------------------------------------------|
B|---------------------------------------------------------------------------|
G|---------------------------------------------------------------------------|
D|--------------------------------------------5-3-2-3h-2h--------------------|
A|-------------3-2h-0h-2h-0h-2h-3h-2h-0h-----3-----------5-7-5-7-8-7-5-------|
E|-0-0-0-3-0-0-----------------------------1---------------------------------|


e|---------------------------------------------------------------------------|
B|---------------------------------------------------------------------------|
G|---------------------------------------------------------------------------|
D|---------------------------------------------------------------------------|
A|-------------3-2h-0h-2h-0h-2h-3h-2h-0h---------------3-2h-0h-2h------------|
E|-0-0-0-3-0-0-----------------------------0-0-0-3-0-0-----------------------|

e|---------------------------------------------------------------------------|
B|---------------------------------------------------------------------------|
G|---------------------------------------------------------------------------|
D|--------------------------------------------5-3-2-3h-2h--------------------|
A|-------------3-2h-0h-2h-0h-2h-3h-2h-0h-----3-----------5-7-5-7-8-7-5-------|
E|-0-0-0-3-0-0-----------------------------1---------------------------------|


e|---------------------------------------------------------------------------|
B|---------------------------------------------------------------------------|
G|---------------------------------------------------------------------------|
D|---------------------------------------------------------------------------|
A|-------------3-2h-0h-2h-0h-2h-3h-2h-0h---------------3-2h-0h-2h------------|
E|-0-0-0-3-0-0-----------------------------0-0-0-3-0-0-----------------------|

e|---------------------------------------------------------------------------|
B|---------------------------------------------------------------------------|
G|---------------------------------------------------------------------------|
D|--------------------------------------------5-3-2-3h-2h--------------------|
A|-------------3-2h-0h-2h-0h-2h-3h-2h-0h-----3-----------5-7-5-7-8-7-5-------|
E|-0-0-0-3-0-0-----------------------------1---------------------------------|


 Outro  (played in Dropped D)
e|---------------------------------------------------------------------------|
B|---------------------------------------------------------------------------|
G|---------------------------------------------------------------------------|
D|--0---------------------0--------------------------------------------------|
A|--0--3-2/-6-5-/9-8--0--3--2-/6--5-/9--8~------------------------------------|
D|--0---------------------0--------------------------------------------------|

e|---------------------------------------------------------------------------|
B|---------------------------------------------------------------------------|
G|---------------------------------------------------------------------------|
D|--0--0-----10--9----0--0---------------------------------------------------|
A|--0--0-----10--9----0--0-------2h3p2p0--2p0--------------------------------|
D|--0--0--0--10--9----0--0--2p0---------------3p2----------------------------|

e|---------------------------------------------------------------------------|
B|---------------------------------------------------------------------------|
G|---------------------------------------------------------------------------|
D|--0--0-----10--9----0--0---------------------------------------------------|
A|--0--0-----10--9----0--0-------2h3p2p0--2p0--------------------------------|
D|--0--0--0--10--9----0--0--2p0---------------3p2----------------------------|


e|---------------------------------------------------------------------------|
B|---------------------------------------------------------------------------|
G|---------------------------------------------------------------------------|
D|---------------------------------------------------------------------------|
A|----------------------------------------------3-2-6-5-9-8------------------|
D|--0-0-0-0-0-0-3-2-0-0-0-0-0-0-2-3-0-0-0-0-0-0------------------------------|
     

e|---------------------------------------------------------------------------|
B|---------------------------------------------------------------------------|
G|---------------------------------------------------------------------------|
D|---------------------------------------------------------------------------|
A|-------2h3p2p0--2p0--------------2h3p2p0--2p0------------------------------|
D|--0h2---------------3p2-0---0h2---------------3p2-0------------------------|


| /  slide up
| \  slide down
| h  hammer-on
| p  pull-off
| ~  vibrato
| +  harmonic
| x  Mute note
===============================================================================

Related for The Metal tab