Song name
# A B C D E F G H I J K L M N O P Q R S T U V W X Y Z

Tenacious D - Secrets Of Rock tab

Help us improve GuitareTab! Take a short survey!
This is the song JB plays on the beach to earn money in "The Pick of Destiny." It's 
simple, and only has three basic parts.

Intro
e|-----------------------------------------------------------|
B|-----------------------------------------------------------|
G|-----------------------------------------------------------|
D|-5-555-5555-5--7-777-7777-7--10--10'10'10--10'10'10'10--10-|
A|-5-555-5555-5--7-777-7777-7--10--10'10'10--10'10'10'10--10-|
E|-3-333-3333-3--5-555-5555-5--8---8--8--8---8--8-8--8----8--|
"His fingers move with blinding speed..."

e|---------------|
B|---------------|
G|-------------9-|
D|-9-10-9-10-9-9-|
A|-9-10-9-10-9-7-|
E|-7-8--7-8--7---|
"I'm proud to be amoungst..."

Verse
e|------------|
B|------------|
G|-999-9999-9-|
D|-999-9999-9-|
A|-777-7777-7-|
E|------------|
"He teaches me.."

Outro
e|--------------------------------|
B|--------------------------------|
G|------------9-999-9999-999-9999-|
D|-7~-9-10-12-9-999-9999-999-9999-|
A|-7~-9-10-12-7-777-7777-777-7777-|
E|-5~-7-8--10---------------------|
"And when I've learned all of his lessons..."


That's it. Just watched the making of the song on "The Pick of Destiny" DVD.
Related for Secrets Of Rock tab