Guitaretab - guitar tabs
Song name
# A B C D E F G H I J K L M N O P Q R S T U V W X Y Z

Tenacious D - Saturday Night Live tab

Intro Song from Saturday Night Live appearance.

Jack Black (with help later from the other guy on flutes) plays this too
start off the show acoustically.  I got the video off Kazaa
(Tenacious_D_on_SNL_01192002_vcd.mpg)


The intro riff is played throughout the song
(often in the background when he's not even playing guitar).

INTRO x 2
e-----2------3p2------------------------------|
b-------3--------3-------1--------------------|
g---------2--------2-------2-------0----------|
d---0----------------0-3-----3-------0h2------|
a--------------------------------3--------3---|
e---------------------------------------------|


VERSE x 3
e-----2------3-----------------------------|
b-------3------3-------1-------------------|
g---------2------2-------2-----0-----------|
d---0--------------0-3-----3-----2---------|
a----------------------------3-----3-------|
e------------------------------------------|

Feels like a dream, ...

The lucky one is not me, but you, cause you get to see me


STRUM HARDER x 3
e---2-2-2-2-2-2-2-2-------------------------|
b---3-3-3-3-3-3-3-3----1-1-1-1--1-1-1-1-----|
g---2-2-2-2-2-2-2-2----2-2-2-2--0-0-0-0-----|
d---0-0-0-0-0-0-0-0----3-3-3-3--2-2-2-2-----|
a-------------------------------3-3-3-3-----|
e-------------------------------------------|

The most talented man that the world has ever seen, its me
Like a cross between a lightning bolt and James Dean.
I only wish that I was you looking at me

[ Tab from: http://www.guitaretab.com/t/tenacious-d/110984.html ]
INTRO x 2
e-----2------3p2------------------------------|
b-------3--------3-------1--------------------|
g---------2--------2-------2-------0----------|
d---0----------------0-3-----3-------0h2------|
a--------------------------------3--------3---|
e---------------------------------------------|

I mean wow, ....
This is where ....


Pick............       STRUM HARDER HERE
e-----2------3p2---------------------|
b-------3--------3-----1-1--1-1------|
g---------2--------2---2-2--0-0------|
d---0----------------0-3-3--2-2------|
a---------------------------3-3------|
e------------------------------------|

And now I'm here.... and I'm blowing them off the stage with my intensity


STRUM HARDER x 8
e---2-2-2-2-2-2-2-2-------------------|
b---3-3-3-3-3-3-3-3----1-1---1-1------|
g---2-2-2-2-2-2-2-2----2-2---0-0------|
d---0-0-0-0-0-0-0-0----3-3---2-2------|
a----------------------------3-3------|
e-------------------------------------|

Erasing there ...
changing the way...
Come on cage twin ...
(Duel flute solo over the top)


STRUM... Pick the rest obviously x 1
e---2-2--3p2---------------------------|
b---3-3------3-------1-----------------|
g---2-2--------2-------2-----0---------|
d---0-0----------0-3-----3-----0h2-----|
a--------------------------3--------3--|
e--------------------------------------|

We've got ...
The Strokes are here, so stick around we'll be right back.........


STRUM HARD till song cuts out
e---2-2-2-2-2-2-2-2-------------------|
b---3-3-3-3-3-3-3-3----1-1---1-1------|
g---2-2-2-2-2-2-2-2----2-2---0-0------|
d---0-0-0-0-0-0-0-0----3-3---2-2------|
a----------------------------3-3------|
e-------------------------------------|
Related for Saturday Night Live tab