Song name
# A B C D E F G H I J K L M N O P Q R S T U V W X Y Z

Tenacious D - Training Medley tab

-------------------------------------------------------------------------------
			     Training Medley - Tenacious D
-------------------------------------------------------------------------------
Tabbed by:zakkn'slash
Email:andipereira@hotmail.com
This is the part when JB is playing outside and then call to kyle etc etc etc
Note: The number of times a chord is played is not right, is just for you guys have an idea.
Thanks

Tuning:Standart

e|-------------------------------------------------------------------------------|
B|-------------------------------------------------------------------------------|
G|------------------------------------------------------------------9-9-9-9-9-9--|
D|--5-5-55-5-5-5--7-7-77-7-7-7--10-10-10-10-10-10-10-9-10-9-10-9----9-9-9-9-9-9--|
A|--5-5-55-5-5-5--7-7-77-7-7-7--10-10-10-10-10-10-10-9-10-9-10-9----7-7-7-7-7-7--|
E|--3-3-33-3-3-3--5-5-55-5-5-5--8--8--8--8--8--8--8--7-8--7-8--7-----------------|

e|-------------------------------------------------------------------------------|
B|-------------------------------------------------------------------------------|
G|-9-9-9-9-9-9-9-9-9-9-9-9-------------------------------------------------------|
D|-9-9-9-9-9-9-9-9-9-9-9-9---7---9-10-12--2-2-2-2-2-2-2-2-2-2-2-2-2-2-2----------|
A|-7-7-7-7-7-7-7-7-7-7-7-7---7---9-10-12--2-2-2-2-2-2-2-2-2-2-2-2-2-2-2----------|
E|---------------------------5---7-8--10--0-0-0-0-0-0-0-0-0-0-0-0-0-0-0----------|


| /  slide up
| \  slide down
| h  hammer-on
| p  pull-off
| ~  vibrato
| +  harmonic
| x  Mute note
===============================================================================
Tap to rate this tab
# A B C D E F G H I J K L M N O P Q R S T U V W X Y Z