Song name
# A B C D E F G H I J K L M N O P Q R S T U V W X Y Z

Tenacious D - Andrea tab

great song from there new album 

e|-----------------------------------------14-----------------------------|
B|-----------------------3-----------2--3--0-----------------4-5----------|
G|---4-----------------3--3-------4-2---2--8----------------3---5---------|
D|---4----------------2----4-----8------2--0---4-3h8--5--3-3--------------|
A|---2---------------2------6---8-------2--5--4--------------------1h17---|
E|------1-1-1-2-2-2----------8----------1--1------------------------------|


this bit goes with the first verse...

andrea is a dirty slut, 
she takes it up the bum, 
ohh yeah andrea the kinky slut, 
she licks dennis's bumhole whilst licking my cock,
oh yeaah.

the first bit is played twice and then goes into the chorus...

e|--1-1-1-1-1-1-1-1-1--------------------------------|
B|--------------------1-1-1-1-1-1-1-1-1------------0-|
G|--------------------------------------1---------1--|
D|----------------------------------------2------2---|
A|------------------------------------------3---3----|
E|--------------------------------------------4------|

andrea, andrea, shes such a dirty fucking slut,
andrea, andrea, shes such a dirty fucking slut.

thats also played twice.

and thats all i got so far. overall its a great
 song from tenacious d which is on there new album 
"milf.com" which is also great. ill get the rest 
tabbed soon so you can play the whole song.
 peace out dudes.

Tap to rate this tab
 
# A B C D E F G H I J K L M N O P Q R S T U V W X Y Z