Song name
# A B C D E F G H I J K L M N O P Q R S T U V W X Y Z

Tenacious D - Rock Your Socks Off tab

Song: Rock Your Socks Off (Studio Version)
Artist: Tenacious D

Transposed By Colton Wood
(C0LT0NW00D@aol.com)

This song is an entertaining song from the partly acoustic comedy Group 
known AS "The D". I included two guitars and lyrics at the end. play with 
their hard rocking partner. I know I left out some riffs played during the 
Chorus but you can barely hear them and they are even harder to tab out so 
i left them be. Note this ENTIRE tab was transposed completely by ear. 
100% non-plagiarized.

I tabbed this out because the other ones just didn't seem complete.

Guitar 1: Standard (EADGBe)
Guitar 2: Standard (EADGBe) 
 
Legend:
x| Palm mute
+| Light Palm Mute
/| Slide up to
\| Slide down to
b| Bend to
r| Release bend
5-(5)| 1/4 bend 
~| Hold/Vibrato
h| Hammer On to
p| Pull Off to
****************************************************************************
Guitar parts start at about 13 seconds into the song (after the drumming intro).

(X2)
e|---------------------------------------|
B|---------------------------------------|
G|---------------------------------------|
D|---------------------------------------|
A|---------------------------------------|
E|-0-0-0-0-3-3-3-3-6-6-6-6-5-3-5-3-------|
1| * * * * * * * * * * * * * * * *
2|
e|---------------------------------------|
B|---------------------------------------|
G|---------------------------------------|
D|---------------------------------------|
A|---------------------------------------|
E|---------------------------------------|

Verse 1 (Starts at about 0:19)

e|---------------------------------------|
B|---------------------------------------|
G|---------------------------------------|
D|---------------------------------------|
A|---------------------------------------|
E|-0-0-0-0-3-3-3-3-6-6-6-6-5-3-5-3-------|
1| * * * * * * * * * * * * * * * *
2|
e|---------------------------------------|
B|---------------------------------------|
G|---------------------------------------|
D|---------------------------------------|
A|-----------------------12p10-----------|
E|-----------------------------12--------|

e|---------------------------------------|
B|---------------------------------------|
G|---------------------------------------|
D|---------------------------------------|
A|---------------------------------------|
E|-0-0-0-0-3-3-3-3-6-6-6-6-5-3-5-3-------|
1| * * * * * * * * * * * * * * * *
2|
e|---------------------------------------|
B|---------------------------------------|
G|---------------------------------------|
D|-9~------------------------------------|
A|------------12b14~---------------------|
E|---------------------------------------|

e|---------------------------------------|
B|---------------------------------------|
G|---------------------------------------|
D|---------------------------------------|
A|---------------------------------------|
E|-0-0-0-0-3-3-3-3-6-6-6-6-5-3-5-3-------|
1| 
2|
e|---------------------------------------|
B|-(Slowly bend while playing this)------|
G|-----6-6-6-6b7=7=7=7=7=7b6-------------|
D|-----------------------------2p4--0----|
A|---------------------------------------|
E|---------------------------------------|

e|---------------------------------------|
B|---------------------------------------|
G|---------------------------------------|
D|---------------------------------------|
A|---------------------------------------|
E|-0-0-0-0-3-3-3-3-6-6-6-6-5-3-5-3-------|
1| * * * * * * * * * * * * * * * *
2|
e|---------------------------------------|
B|---------------------------------------|
G|---------------------------------------|
D|---------------------------------------|
A|--------------------------12p10--------|
E|---------------------------------------|

e|---------------------------------------|
B|---------------------------------------|
G|---------------------------------------|
D|---------------------------------------|
A|---------------------------------------|
E|-0-0-0-0-3-3-3-3-6-6-6-6-5-3-5-3-------|
1| * * * * * * * * * * * * 
2|
e|---------------------------------------|
B|---------------------------------------|
G|---------------------------------------|
D|---------------------------------------|
A|---------------------------------------|
E|---------------------------------------|

e|---------------------------------------|
B|---------------------------------------|
G|---------------------------------------|
D|---------------------------------------|
A|---------------------------------------|
E|-0-0-0-0-3-3-3-3-6-6-6-6-5-3-5-3-------|
1| * * * * * * * * * * * * * * * *
2|
e|---------------------------------------|
B|---------------------------------------|
G|---------------------------------------|
D|---------------------------------------|
A|---------------------------------------|
E|---------------------------------------|

e|---------------------------------------|
B|---------------------------------------|
G|---------------------------------------|
D|---------------------------------------|
A|---------------------------------------|
E|-0-0-0-0-3-3-3-3-6-6-6-6-5-3-5-3-------|
1| * * * * * * * * * * * * * * * *
2|
e|---------------------------------------|
B|---------------------------------------|
G|---------------------------------------|
D|---------------------------------------|
A|----------------------2-5-h7----xx-----|
E|---------------0-3-5----------0-xx-----|
                 * * *
e|---------------------------------------|
B|---------------------------------------|
G|---------------------------------------|
D|---------------------------------------|
A|---------------------------------------|
E|-0-0-0-0-3-3-3-3-6-6-6-6-5-3-5-3-------|
1| * * * * * * 
2|
e|---------------------------------------|
B|---------------------------------------|
G|---------------------------------------|
D|---------------------------------------|
A|--------------5-7-8-7-5-------xx-------|
E|------------------------7-5-7-xx-------|

e|---------------------------------------|
B|---------------------------------------|
G|---------------------------------------|
D|---------------------------------------|
A|---------------------------------------|
E|-0-0-0-0-3-3-3-3-6-6-6-6-5-3-5-3-------|
1| * * * * * * * * * * * * * * * *
2|
e|---------------------------------------|
B|----------------------81011108---------|
G|---------------------9--------9p7------|
D|---------------------------------------|
A|---------------------------------------|
E|---------------------------------------|

e|---------------------------------------|
B|---------------------------------------|
G|---------------------------------------|
D|---------------------------------------|
A|---------------------------------------|
E|-0-0-0-0-3-3-3-3-6-6-6-6-5-3-5-3-------|
1| * * * * * * * * * * * * * * * *
2|
e|---------------------------------------|
B|---------------------------------------|
G|---------------------------------------|
D|--------7-5----------------------------|
A|-------------------7-5-----------------|
E|---------------------------------------|


e|-------|
B|-------|
G|-9-----|
D|-x-----|
A|-7-----|
E|-------|
1| 
2|
e|-------|
B|-------|
G|-9-----|
D|-9-----|
A|-7-----|
E|-0-----|

“Give ‘em a taste KG...”
“Okay”

Guitar 1 only (Starts at about 0:48)
Song KG played at Venice Beach in the Pick of destiny (Movie)
(X2) 
e|-0-2-3---2-0-----0-2---------0--------------------------------|
B|-------------4-------0---2-4-----3-1-0------------------------|
G|-----------------------------------------2-0-----0-2-4-2-0----|
D|---------------------------------------------4-------------4-2|
A|---------0---2---------------------------0---2---3---2--------|
E|-3---0-----------3---2---3---0---3---0-------------------3---0|

*******************************************************************
*If you wanted to play with two guitars instead of one here it is:*
*(X2)                                                             *
*e|-0-2-3---2-0-----0-2---------0--------------------------------|*
*B|-------------4-------0---2-4-----3-1-0------------------------|*
*G|-----------------------------------------2-0-----0-2-4-2-0----|*
*D|---------------------------------------------4-------------4-2|*
*A|--------------------------------------------------------------|*
*E|--------------------------------------------------------------|*
*1|                                                               *
*2|                                                               *
*e|--------------------------------------------------------------|*
*B|--------------------------------------------------------------|*
*G|--------------------------------------------------------------|*
*D|--------------------------------------------------------------|*
*A|---------0---2---------------------------0---2---3---2--------|*
*E|-3---0-----------3---2---3---0---3---0-------------------3---0|*
*******************************************************************
Chorus (Starts at about 1:00)
UH! (X4)
e|------------------------------------|
B|------------------------------------|
G|------------------------------------|
D|-2-2-2-2-2-2-2-2-2-2-2-2-2-2-2-2----|
A|-2-2-2-2-2-2-2-2-2-2-2-2-2-2-2-2----|
E|-0-0-0-0-0-0-0-0-0-0-0-0-0-0-0-0----|
   1 2 3 4 1 2 3 4 1 2 3 4 1 2 3 4 (16)

e|------------------------------------|
B|------------------------------------|
G|-2-2-22-2-4-44-4444-----------------|
D|-2-2-22-2-4-44-4444-----------------|
A|-0-0-00-0-2-22-2222-----------------|
E|------------------------------------|
1|
2|
e|------------------------------------|
B|------------------------------------|
G|-2-2-22-2-4-44-4444-----------------|
D|-2-2-22-2-4-44-4444-----------------|
A|-0-0-00-0-2-22-2222-----------------|
E|------------------------------------|

e|------------------------------|
B|------------------------------|
G|------------------------------|
D|-2--2--0-2---2--2--0-2-0-2-0--|
A|-2--2--0-2---2--2--0-2-0-2-0--|
E|-0--0--0-0-0-0—-0--0-0-0-0-0--|
1|
2|
e|------------------------------|
B|------------------------------|
G|-9--9--7-9---9--9--7-9-7-9-7--|
D|------------------------------|
A|-7--7--7-7---7--7--7-7-7-7-7--|
E|------------------------------|

e|------------------------------------|
B|------------------------------------|
G|-2-2-22-2-4-44-4444-----------------|
D|-2-2-22-2-4-44-4444-----------------|
A|-0-0-00-0-2-22-2222-----------------|
E|------------------------------------|
1|
2|
e|------------------------------------|
B|------------------------------------|
G|-2-2-22-2-4-44-4444-----------------|
D|-2-2-22-2-4-44-4444-----------------|
A|-0-0-00-0-2-22-2222-----------------|
E|------------------------------------|


e|------------------------------|
B|------------------------------|
G|------------------------------|
D|-2--2--0-2---2--2--0-2-0-2-0--|
A|-2--2--0-2---2--2--0-2-0-2-0--|
E|-0--0--0-0-0-0—-0--0-0-0-0-0--|
1|
2|
e|------------------------------|
B|------------------------------|
G|-9--9--7-9---9--9--7-9-7-9-7--|
D|------------------------------|
A|-7--7--7-7---7--7--7-7-7-7-7--|
E|------------------------------|

e|----------------------------|\
B|----------------------------| \
G|----------------------------|  \ 
D|-2~~~~~~~~~~~~--------------|   \
A|-2~~~~~~~~~~~~--------------|    \
E|-0~~~~~~~~~~~~--------------|     \
1|                                   \ Drums play through the held notes/
2|                                   / Bass plays through the held notes\
e|----------------------------|     /
B|---------------5------------|    / 
G|----------------------------|   /
D|-9~~~~~~~~~~~~-2------------|  /
A|-7~~~~~~~~~~~~--------------| /
E|-0~~~~~~~~~~~~--------------|/

Pre-Verse (Starts at about 1:32)

e|---------------------------------------|
B|---------------------------------------|
G|---------------------------------------|
D|---------------------------------------|
A|---------------------------------------|
E|-0-0-0-0-3-3-3-3-6-6-6-6-5-3-5-3-------|
1| 
2|
e|---------------------------------------|
B|---------------------------------------|
G|---------------------------------------|
D|---------------------------------------|
A|---------------------------12p10-------|
E|---------------------------------------|

Verse 2 (Starts at about 1:35)

e|---------------------------------------|
B|---------------------------------------|
G|---------------------------------------|
D|---------------------------------------|
A|---------------------------------------|
E|-0-0-0-0-3-3-3-3-6-6-6-6-5-3-5-3-------|
1| * * * * * * * * * * * * * * * *
2|
e|---------------------------------------|
B|---------------------------------------|
G|---------------------------------------|
D|---------------------------------------|
A|-----------------------------12--------|
E|---------------------------------------|

e|---------------------------------------|
B|---------------------------------------|
G|---------------------------------------|
D|---------------------------------------|
A|---------------------------------------|
E|-0-0-0-0-3-3-3-3-6-6-6-6-5-3-5-3-------|
1| * * * * * * * * * * * * * * * *
2|
e|---------------------------------------|
B|---------------------------------------|
G|---------------------------------------|
D|---------------------------------------|
A|---------------------------------------|
E|---------------------------------------|

e|---------------------------------------|
B|---------------------------------------|
G|---------------------------------------|
D|---------------------------------------|
A|---------------------------------------|
E|-0-0-0-0-3-3-3-3-6-6-6-6-5-3-5-3-------|
1| * * * * * * * * * * * * * * * *
2|
e|---------------------------------------|
B|---------------------------------------|
G|---------------------------------------|
D|---------------------------------------|
A|---------------------------------------|
E|---------------------------------------|

e|---------------------------------------|
B|---------------------------------------|
G|---------------------------------------|
D|---------------------------------------|
A|---------------------------------------|
E|-0-0-0-0-3-3-3-3-6-6-6-6-5-3-5-3-------|
1| * * * * 
2|
e|---------------------------------------|
B|---------------------------------------|
G|---------------------------------------|
D|---------------------------------------|
A|---------------------------------------|
E|---------------------------------------|

e|---------------------------------------|
B|---------------------------------------|
G|---------------------------------------|
D|---------------------------------------|
A|---------------------------------------|
E|-0-0-0-0-3-3-3-3-6-6-6-6-5-3-5-3-------|
1| * * * * * * * * * * * * * * * *
2|
e|---------------------------------------|
B|---------------------------------------|
G|---------------------------------------|
D|---------------------------------------|
A|---------------------------------------|
E|---------------------------------------|

e|---------------------------------------|
B|---------------------------------------|
G|---------------------------------------|
D|---------------------------------------|
A|---------------------------------------|
E|-0-0-0-0-3-3-3-3-6-6-6-6-5-3-5-3-------|
1| * * * * * * * * * * * * * * * *
2|
e|---------------------------------------|
B|---------------------------------------|
G|---------------------------------------|
D|-------------------------------12b14~~~|
A|---------------------------------------|
E|---------------------------------------|

e|---------------------------------------|
B|---------------------------------------|
G|---------------------------------------|
D|---------------------------------------|
A|---------------------------------------|
E|-0-0-0-0-3-3-3-3-6-6-6-6-5-3-5-3-------|
1| * * * * * * * * * * * * * * * *
2|
e|---------------------------------------|
B|---------------------------------------|
G|---------------------------------------|
D|~~~~~~~~-------------------------------|
A|-----------------12p10-----------------|
E|---------------------------------------|

e|---------------------------------------|
B|---------------------------------------|
G|---------------------------------------|
D|---------------------------------------|
A|---------------------------------------|
E|-0-0-0-0-3-3-3-3-6-6-6-6-5-3-5-3-------|
1| * * * * * * * * * * * * * * * *
2|
e|---------------------------------------|
B|---------------------------------------|
G|---------------------------------------|
D|---------------------------------------|
A|---------------------------------------|
E|---------------------------------------|

e|---------------------------------------|
B|---------------------------------------|
G|---------------------------------------|
D|---------------------------------------|
A|---------------------------------------|
E|-0-0-0-0-3-3-3-3-6-6-6-6-5-3-5-3-------|
1| * * * * * * * * * * * * * * * *
2|
e|---------------------------------------|
B|---------------------------------------|
G|---------------------------------------|
D|---------------------------------------|
A|---------------------------------------|
E|-5b6~~~~~~~~~~~~~~~~~~~~~~~~~~~0-------|

e|---------------------------------------|
B|---------------------------------------|
G|---------------------------------------|
D|---------------------------------------|
A|---------------------------------------|
E|-0-0-0-0-3-3-3-3-6-6-6-6-5-3-5-3-------|
1| * * * * * * * * * * * * * * * *
2|
e|---------------------------------------|
B|---------------------------------------|
G|-9-7-9---9---9---9---9---9---9---------|
D|-------9---9---9---9---9---9---9-------|
A|---------------------------------------|
E|---------------------------------------|
       + + + + + + + + + + + + + + 
e|---------------------------------------|
B|---------------------------------------|
G|---------------------------------------|
D|---------------------------------------|
A|---------------------------------------|
E|-0-0-0-0-3-3-3-3-6-6-6-6-5-3-5-3-------|
1| * * * * * * * * * * * * * * * *
2|
e|---------------------------------------|
B|---------------------------------------|
G|-9---9---9---9---9---9---9---9---------|
D|---9---9---9---9---9---9---9---9-------|
A|---------------------------------------|
E|---------------------------------------|
   + + + + + + + + + + + + + + + + 
e|---------------------------------------|
B|---------------------------------------|
G|---------------------------------------|
D|---------------------------------------|
A|---------------------------------------|
E|-0-0-0-0-3-3-3-3-6-6-6-6-5-3-5-3-------|
1| * * * * * * * * * * * * * * * *
2|
e|---------------------------------------|
B|---------------------------------------|
G|-9---9---9---9---9---9---9---9---------|
D|---9---9---9---9---9---9---9---9-------|
A|---------------------------------------|
E|---------------------------------------|
   + + + + + + + + + + + + + + + + 
e|---------------------------------------|
B|---------------------------------------|
G|---------------------------------------|
D|---------------------------------------|
A|---------------------------------------|
E|-0-0-0-0-3-3-3-3-6-6-6-6-5-3-5-3-------|
1| * * * * * * * * * * * * * * * *
2|
e|---------------------------------------|
B|---------------------------------------|
G|-9---9---9---9---9---9---9-------------|
D|---9---9---9---9---9---9---9-----------|
A|---------------------------------------|
E|---------------------------------------|
   + + + + + + + + + + + + + +
e|---------------------------------------|
B|---------------------------------------|
G|---------------------------------------|
D|---------------------------------------|
A|---------------------------------------|
E|-0-0-0-0-3-3-3-3-6-6-6-6-5-3-5-3-------|
1| * * * * * * * * * * * * * * * *
2|
e|---------------------------------------|
B|---------------------------------------|
G|---------------------------------------|
D|---------------------------------------|
A|---------------------------------------|
E|---------------------------------------|

e|---------------------------------------|
B|---------------------------------------|
G|---------------------------------------|
D|---------------------------------------|
A|---------------------------------------|
E|-0-0-0-0-3-3-3-3-6-6-6-6-5-3-5-3-------|
1| * * * * * * * * * * * * * * * *
2|
e|---------------------------------------|
B|---------------------------------------|
G|---------4---------------4-------------|
D|-----5-7---7-5-7/9-7-5-7---7-5---------|
A|---7---------------------------7-------|
E|-------------------------------0-------|

e|---------------------------------------|
B|---------------------------------------|
G|---------------------------------------|
D|---------------------------------------|
A|---------------------------------------|
E|-0-0-0-0-3-3-3-3-6-6-6-6-5-3-5-3-------|
1| * * * * * * * * * * * * * * * *
2|
e|---------------------------------------|
B|---------------------------------------|
G|---------------------------------------|
D|---------------------------------------|
A|---------------------------------------|
E|---------------------------------------|

e|---------------------------------------|
B|---------------------------------------|
G|---------------------------------------|
D|---------------------------------------|
A|---------------------------------------|
E|-0-0-0-0-3-3-3-3-6-6-6-6-5-3-5-3-------|
1| * * * * * * * * * * * * * * * *
2|
e|---------------------------------------|
B|---------------------------------------|
G|---------------------------------------|
D|---------------------------------------|
A|---------------------------------------|
E|---------------------------------------|

e|---------------------------------------|
B|---------------------------------------|
G|---------------------------------------|
D|---------------------------------------|
A|---------------------------------------|
E|-0-0-0-0-3-3-3-3-6-6-6-6-5-3-5-3-------|
1| * * * * * * * * * * * * * * * *
2|
e|---------------------------------------|
B|---------------------------------------|
G|---------------------------------------|
D|---------------------------------------|
A|---------------------------------------|
E|-0-0-0-0-3-3-3-3-6-6-6-6-5-3-5-0-------|

e|---------------------------------------|
B|---------------------------------------|
G|---------------------------------------|
D|---------------------------------------|
A|-----------------8-8-8-8-7-5-7-0-------|
E|-0-0-0-0-3-3-3-3-6-6-6-6-5-3-5-0-------|
1| 
2|
e|---------------------------------------|
B|---------------------------------------|
G|---------------------------------------|
D|---------------------------------------|
A|-----------------8-8-8-8-7-5-7-0-------|
E|-0-0-0-0-3-3-3-3-6-6-6-6-5-3-5-0-------|

e|---------------------------------------|
B|---------------------------------------|
G|---------------------------------------|
D|---------------------------------------|
A|-----------0-2-0---------------0-2-----|
E|-0-000-2-3-------3-2-0-2-3-2-3---------|
1| + +++ + + + + + + + + + + + + + +
2|
e|---------------------------------------|
B|---------------------------------------|
G|---------------------------------------|
D|-------------------------------9p7-----|
A|---------------------------------------|
E|---------------------------------------|

e|---------------------------------------|
B|---------------------------------------|
G|-----------------------------9\\\\-----|
D|---------------------------------------|
A|-----------------------9-7-------------|
E|-0-0-3-0-0-0-3-0-0-0-3-----0~~~~~~-----|
1| * * * * * * * * * * 
2|
e|---------------------------------------|
B|---------------------------------------|
G|---------------------------------------|
D|---------------------------------------|
A|-2-------------------------------------|
E|-0-------------------------------------|
   *
e|---------------------------------------|
B|---------------------------------------|
G|---------------------------------------|
D|---------------------------------------|
A|-----------0-2-0---------------0-2-----|
E|-0-000-2-3-------3-2-0-2-3-2-3---------|
1| + +++ + + + + + + + + + + + + + +
2|
e|---------------------------------------|
B|---------------------------------------|
G|---------------------------------------|
D|---------------------------------------|
A|---------------------------------------|
E|---------------------------------------|

e|-------------------|
B|------------8~\----|
G|-------------------|
D|------------5~\----|
A|-------------------|
E|-0~~~~~~~~~~-------|
1|
2|
e|-------------------|
B|--------------------|
G|--------------------|
D|--------------------|
A|-2~~~~~~~~~~~~~~----|
E|-0~~~~~~~~~~~~~~----|

Chorus 2 (Starts at about 2:51)

e|------------------------------------|
B|------------------------------------|
G|------------------------------------|
D|-2-2-2-2-2-2-2-2-2-2-2-2-2-2-2-2----|
A|-2-2-2-2-2-2-2-2-2-2-2-2-2-2-2-2----|
E|-0-0-0-0-0-0-0-0-0-0-0-0-0-0-0-0----|
   1 2 3 4 1 2 3 4 1 2 3 4 1 2 3 4 (16)

e|------------------------------------|
B|------------------------------------|
G|-2-2-22-2-4-44-4444-----------------|
D|-2-2-22-2-4-44-4444-----------------|
A|-0-0-00-0-2-22-2222-----------------|
E|------------------------------------|
1|
2|
e|------------------------------------|
B|------------------------------------|
G|-2-2-22-2-4-44-4444-----------------|
D|-2-2-22-2-4-44-4444-----------------|
A|-0-0-00-0-2-22-2222-----------------|
E|------------------------------------|

e|------------------------------|
B|------------------------------|
G|------------------------------|
D|-2--2--0-2---2--2--0-2-0-2-0--|
A|-2--2--0-2---2--2--0-2-0-2-0--|
E|-0--0--0-0-0-0—-0--0-0-0-0-0--|
1|
2|
e|------------------------------|
B|------------------------------|
G|-9--9--7-9---9--9--7-9-7-9-7--|
D|------------------------------|
A|-7--7--7-7---7--7--7-7-7-7-7--|
E|------------------------------|

e|------------------------------------|
B|------------------------------------|
G|-2-2-22-2-4-44-4444-----------------|
D|-2-2-22-2-4-44-4444-----------------|
A|-0-0-00-0-2-22-2222-----------------|
E|------------------------------------|
1|
2|
e|------------------------------------|
B|------------------------------------|
G|-2-2-22-2-4-44-4444-----------------|
D|-2-2-22-2-4-44-4444-----------------|
A|-0-0-00-0-2-22-2222-----------------|
E|------------------------------------|

e|------------------------------|
B|------------------------------|
G|------------------------------|
D|-2--2--0-2---2--2--0-2-0-2-0--|
A|-2--2--0-2---2--2--0-2-0-2-0--|
E|-0--0--0-0-0-0—-0--0-0-0-0-0--|
1|
2|
e|------------------------------|
B|------------------------------|
G|-9--9--7-9---9--9--7-9-7-9-7--|
D|------------------------------|
A|-7--7--7-7---7--7--7-7-7-7-7--|
E|------------------------------|


e|------------------------------|
B|------------------------------|
G|------------------------------|
D|-2--2--0-2---2--2--0-2-0-2-0--|
A|-2--2--0-2---2--2--0-2-0-2-0--|
E|-0--0--0-0-0-0—-0--0-0-0-0-0--|
1|
2|
e|------------------------------|
B|------------------------------|
G|-9--9--7-9---9--9--7-9-7-9-7--|
D|------------------------------|
A|-7--7--7-7---7--7--7-7-7-7-7--|
E|------------------------------|

Outro (Starts at about 3:14)

e|---------------------|
B|---------------------|
G|-9-9-9-9-9-9-9-9-9-9-|
D|-9-9-9-9-9-9-9-9-9-9-|
A|-7-7-7-7-7-7-7-7-7-7-|
E|---------------------|
1|
2|
e|---------------------|
B|---------------------|
G|---------------------|
D|-----------------2---|
A|---------0-0-2-3-----|
E|-0-0-2-3-----------3-|

e|---------------------|
B|---------------------|
G|-9-9-9-9-9-9-9-9-9-9-|
D|-9-9-9-9-9-9-9-9-9-9-|
A|-7-7-7-7-7-7-7-7-7-7-|
E|---------------------|
1|
2|
e|---------------------|
B|---------------------|
G|-9-9-9-9-9-9-9-9-9-9-|
D|-9-9-9-9-9-9-9-9-9-9-|
A|-7-7-7-7-7-7-7-7-7-7-|
E|---------------------|

e|-----------|
B|-----------|
G|-9-9-9-9-9-|
D|-9-9-9-9-9-|
A|-7-7-7-7-7-|
E|-----------|
1|
2|
e|-----------|
B|-----------|
G|-9-9-9-9-9-|
D|-9-9-9-9-9-|
A|-7-7-7-7-7-|
E|-----------|

e|-----------|
B|-----------|
G|-9-9-9-9-9-|
D|-9-9-9-9-9-|
A|-7-7-7-7-7-|
E|-----------|
1|
2|
e|-----------|
B|-----------|
G|-9-9-9-9-9-|
D|-9-9-9-9-9-|
A|-7-7-7-7-7-|
E|-----------|

e|---|
B|---|
G|-9-|
D|-9-|
A|-7-|
E|---|
1|
2|
e|---|
B|---|
G|-9-|
D|-9-|
A|-7-|
E|---|

e|---|
B|---|
G|-9-|
D|-9-|
A|-7-|
E|---|
1|
2|
e|---|
B|---|
G|-9-|
D|-9-|
A|-7-|
E|---|

e|---------------------|
B|---------------------|
G|-9--9-9--9-99999999--|
D|-9--9-9--9-99999999--|
A|-7--7-7--7-77777777--|
E|---------------------|
1|
2|
e|---------------------|
B|---------------------|
G|-9--9-9--9-99999999--|
D|-9--9-9--9-99999999--|
A|-7--7-7--7-77777777--|
E|---------------------|

e|---------------------|
B|---------------------|
G|-2-2-22-2-4-44-4444--|
D|-2-2-22-2-4-44-4444--|
A|-0-0-00-0-2-22-2222--|
E|---------------------|
1|
2|
e|---------------------|
B|---------------------|
G|-2-2-22-2-4-44-4444--|
D|-2-2-22-2-4-44-4444--|
A|-0-0-00-0-2-22-2222--|
E|---------------------|

e|---------------------|
B|---------------------|
G|-9-9-9-9-9-9-9-9-9-9-|
D|-9-9-9-9-9-9-9-9-9-9-|
A|-7-7-7-7-7-7-7-7-7-7-|
E|---------------------|
1|
2|
e|---------------------|
B|---------------------|
G|-9-9-9-9-9-9-9-9-9-9-|
D|-9-9-9-9-9-9-9-9-9-9-|
A|-7-7-7-7-7-7-7-7-7-7-|
E|---------------------|

END! There you go. Play that and rock your own socks off baby!

Concluding this tab will be the full song lyrics:

1, 2, 3, 4, 5, 6-6-6!

It doesn’t matter if it is good,
It only matters if it rocks.
The main thing that we do is to rock your socks off.
Theres no such thing as a rock prodigy,
Cause rock n roll is bogus, right KG? Right.
Only thing that really matters is a classical sauce.
And that’s why me and KG are classically trained
To rock your f***ing socks off!
Give em a taste KG...Okay.

(Classical interlude part 1)

That is Bach and it rocks
Its a rock block of Bach
That he learned in the school
Called the school of hard knocks!

Give it up for KG! give it up for me!
Give it up for KG! give it up for me!
Give it up for rock...
Give it up for blues...
Give it up for everything that is not to lose!
Now rock your socks off woman!
Well rock your shit up yall!
Give it up children now to freak your shit out!
All right!


Now I know what a lot of you are saying:
I just figured out what Im gonna do with the rest of my days.
Im gonna get me an oversized guitar, gain forty pounds and be the next D!
Well I got sour news for you, jack:
It aint that easy. For instance,
are you willing to make the commitment to waking up at the crack a noon,
for deep-knee rock squats!? Seven or eight at a time!?In a row?
How bout are you willing to make the commitment to rock hard tasty abs washer-board style?
Glistening in the sun?
How bout are you willing to make the commitment,
waking up going okay, its gig time, what t-shirt am I gonna wear?
Cant decide... Cant decide... Brain aneurysm!
We’ve been through so much bullshit just to be here tonight to rock your f***ing socks off.

And all we ask in return is so precious little.

All were asking you to do... is drop trou.
And squeeze out a Cleveland Steamer on my chest. Oh...

2-3-4,
Give it up for KG! give it up for me!
Give it up for KG! give it up for me!
Give it up for rock...
Give it up for blues...
Give it up for everything that is not to lose!
Now rock your socks off woman!
Well rock your shit up yall!
Give it up children wont you freak your shit out!
All right!

Oh!
What?
Ah!
Yeah!
Ooooooooowwwwwwww!
Oooowooaaah!

There you go! Leave a comment and drop me a rating if it aint too much trouble. Later
Tap to rate this tab
# A B C D E F G H I J K L M N O P Q R S T U V W X Y Z