Song name
# A B C D E F G H I J K L M N O P Q R S T U V W X Y Z

Tenacious D - Master Exploder tab

MASTER EXPLODER - TAB
Tenacious D
----------------------------
This is an easy tab of the first
solo of the song, for the ones
which have difficulty in playing
it fast part.

|---------12------12-----------|----------------------12-10p7-10p7-|
|-10^12-----^12-------^12^10p8-|-10^12-10p8---8-10^12--------------|
|------------------------------|------------9----------------------|
|------------------------------|-----------------------------------|
|------------------------------|-----------------------------------|
|------------------------------|-----------------------------------|

|---------12------12-----------|-17p15p12-17p12-17p15p12-17p12-17p15p12-|
|-10^12-----^12-------^12^10p8-|----------------------------------------|
|------------------------------|----------------------------------------|
|------------------------------|----------------------------------------|
|------------------------------|----------------------------------------|
|------------------------------|----------------------------------------|


|-------12-17p12-12-14p12-12-15p12-12-17p12-12-14p12----12--------------|
|-15^17----------------------------------------------15----15p12\11-----|
|-------------------------------------------------------------------12\-|
|-----------------------------------------------------------------------|
|-----------------------------------------------------------------------|
|-----------------------------------------------------------------------|
<<< OR >>>
|-------12-17p12----14p12----15p12----17p12----14p12----12--------------|
|-15^17----------15-------15-------15-------15-------15----15p12\11-----|
|-------------------------------------------------------------------12\-|
|-----------------------------------------------------------------------|
|-----------------------------------------------------------------------|
|-----------------------------------------------------------------------|

Hope you like it!


bassjan.
Tap to rate this tab
 
# A B C D E F G H I J K L M N O P Q R S T U V W X Y Z