Song name
# A B C D E F G H I J K L M N O P Q R S T U V W X Y Z

Tenacious D - Dude I Totally Miss You tab

I've noticed that all the electric solo tabs for this song are not the way Kones 
plays it. I submitted this because I love the solo and have noticed other people 
struggling with it.

-----------------------------------------------------------------------------
	         DUDE I TOTALLY MISS YOU (SOLO) - Tenacious D
-----------------------------------------------------------------------------
Tabbed by: Stowers Powers
Email: stowerspowers@yahoo.com

Tuning: standard

e----------------7--5-----|--5--5---5h7-----------------|
B--8~-------7h8--------7~-|---------------7--7h8p7------|
G--------9----------------|--------------------------9~-|
D-------------------------|-----------------------------|
A-------------------------|-----------------------------|
E-------------------------|-----------------------------|

e--------------------------------------|----------------------
B-------3----3h5~----------------------|----------------------
G--2/4----4---------4p3p2p0--2--0--2b--|---------12--14--14b--
D--------------------------------------|--12/14---------------
A--------------------------------------|----------------------
E--------------------------------------|----------------------

e------------------------------12---------------------------|
B--------------------15------------15-----------------------|
G---14p12---14b~---------14pb----------14pbrp12--14-14-12~--|
D-----------------------------------------------------------|
A-----------------------------------------------------------|
E-----------------------------------------------------------|

e----------------------------------------------------------------------|
B----------------------------15-17-------------------------------------|
G------------------12-14/17--------14p12-------------------------------|
D----------12-14-------------------------14p12-------------------------|
A---12/14--------------------------------------14-13-12\10--------12b~-|
E------------------------------------------------------------12--------|


************************************

| /   slide up
| \   slide down
| h   hammer-on
| p   pull-off
| ~   vibrato
| +   harmonic
| x   Mute note
| b   Bend
| pb  Pre-bend
| br  Bend release
| pbr Pre-bend release
| brb Bend release bend

************************************
Tap to rate this tab
 
# A B C D E F G H I J K L M N O P Q R S T U V W X Y Z