Song name
# A B C D E F G H I J K L M N O P Q R S T U V W X Y Z

Tenacious D - The Osbournes tab

The song from commercial.


s - slide
L - tied note

The first part is repeated several times:
E ||---------------------------|----------------------------|
B ||---------------------------|----------------------------|
G ||---------------------------|----------------------------|
D ||-3s-5----------------------|-----------5-----7-----8----|
A ||-3>-5--x--x-----x--x-------|--x--x--x--5-----7-----8L---|
E ||-1s-3--x--x-----x--x-------|--x--x--x--3-----5-----6L---|


----------------------------|---------------------------||
----------------------------|---------------------------||
----------------------------|---------------------------||
-----------8--8--8--8--8----|--------7-----7-----7------||
--8--------8--8--8--8--8----|--7-----7-----7-----7--x---||
--6--------6--6--6--6--6----|--5-----5-----5-----5--x---||

This part is played once:
--1s-3--------3-----3-------|--3-----3--3-----5-----6L---|
--1s-3--------3-----3-------|--3-----3--3-----5-----6L---|
----------------------------|----------------------------|
----------------------------|----------------------------|
----------------------------|----------------------------|
----------------------------|----------------------------|


--6--6--6--6--6-----5-------|--5-----5--5-----1--3-------||
--6--6--6--6--6-----5-------|--5-----5--5-----1s-3-------||
----------------------------|----------------------------||
----------------------------|----------------------------||
----------------------------|----------------------------||
----------------------------|----------------------------||

Have fun!
Tap to rate this tab
 
# A B C D E F G H I J K L M N O P Q R S T U V W X Y Z