Song name
# A B C D E F G H I J K L M N O P Q R S T U V W X Y Z

Tenacious D - Roadie tab

Roadie - Tenacious D

( standard tuning )


Riff1:
E|---------------------------------------------------------------------------|
B|---------------------------------------------------------------------------|
G|-4-x-4--xx-2--x-0--x--4-x-4--xx-2--x-0--xx-2-x-2-xx-2-x-2-x-1-x-1-xx-1-x-1-|
D|-2-x-2--xx-0--x-0--x--2-x-2--xx-0--x-0--xx-0-x-0-xx-0-x-0-x-2-x-2-xx-2-x-2-|
A|---------------------------------------------------------------------------|
e|---------------------------------------------------------------------------|

Riff2:
E|-0-0000-0000----------------------------------------------|
B|-1-1111-1111---x-xxxx-xxxx---0-0-0000-00-00-0-0-0000-00---|
G|-0-0000-0000---2-2222-2222---1-1-1111-11-11-1-1-1111-11---|
D|-2-2222-2222---2-2222-2222---2-2-2222-22-22-2-2-2222-22---|
A|-3-3333-3333---0-0000-0000---2-2-2222-22-22-2-2-2222-22---|
E|-3-3333-3333-----------------0-0-0000-00-00-0-0-0000-00---|

Riff3:
E|-0-0000-000--------------0-0000-000--------------0-0000-000-----|
B|-1-1111-111--x-xxxx-xxx--1-1111-111--x-xxxx-xxx--1-1111-111-----|
G|-0-0000-000--2-2222-222--0-0000-000--2-2222-222--0-0000-000--2--|
D|-2-2222-222--2-2222-222--2-2222-222--2-2222-222--2-2222-222--2--|
A|-3-3333-333--0-0000-000--3-3333-333--0-0000-000--3-3333-333--0--|
E|-3-3333-333--------------3-3333-333--------------3-3333-333-----|

Riff4:
E|-0-0000-0000----------------------------------------------|
B|-1-1111-1111-----------------0-0-0000-00-00-0-0-0000-00---|
G|-0-0000-0000---2-------------1-1-1111-11-11-1-1-1111-11---|
D|-2-2222-2222---2-------------2-2-2222-22-22-2-2-2222-22---|
A|-3-3333-3333---0-------------2-2-2222-22-22-2-2-2222-22---|
E|-3-3333-3333-----------------0-0-0000-00-00-0-0-0000-00---|


The particular order of the riffs:

Intro: Riff1
verse1: Riff1 X4
Pre-Chorus: Riff2 X2
Churos: Riff3
verse2: Riff1 X2
Pre-Chorus: Riff3
Chorus: Riff4 X2
Outro: Riff3 (ends with few A strums and an E chord)




That's it you guys.. made it as accurate and clear as i can..

Keep Rocking :)
Tap to rate this tab
# A B C D E F G H I J K L M N O P Q R S T U V W X Y Z