Song name
# A B C D E F G H I J K L M N O P Q R S T U V W X Y Z

Tenacious D - Pick Of Destiny tab

-------------------------------------------------------------------------------
                             PICK OF DESTINY - Tenacious D
-------------------------------------------------------------------------------
Tabbed by: Mitchell
E-mail: N/A

Tuning: E Standard

It definitely sounds alright, but I'm not entirely sure that it is. He plays an acoustic on the
album for this solo, so it doesn't have as much distinction as an electric guitar would,
making it a little difficult to hear every picking pattern and such. If it's not right, throw a
tab up here so I can see what I'm doing wrong. Otherwise, enjoy. (Solo starts around 1:52)

e|-----------------------------------------------------------------------------|
B|-----------------------------------------------------------------------------|
G|---------------------------------9-------------7b---------9---7------- ------|
D|-------------10b---7--------7--------10---7---------10-----------10---7------|
A|----7---10-------------10----------------------------------------------------|
E|-----------------------------------------------------------------------------|

e|----------------------------------0---0-----0---0-------0------0---0---------|
B|-----------------------------------------------------------------------------|
G|---------7---9---7----------------9---9/10--10--10/12--12/14--12--12/14------|
D|----10---------------10---9---7----------------------------------------------|
A|-----------------------------------------------------------------------------|
E|-----------------------------------------------------------------------------|

e|----0--0--0--0------0------0------0-------0------0------0--------------------|
B|------------------------------------------12/13--13/15--15/17----------------|
G|----9--9--9--9/10--10/12--12/14--14/16---------------------------------------|
D|-----------------------------------------------------------------------------|
A|-----------------------------------------------------------------------------|
E|-----------------------------------------------------------------------------|

******The doubled notes may be some sort of tremolo (fast) picking, I couldn't tell.
Do what works best for you.


************************************

| /   slide up
| \   slide down
| h   hammer-on
| p   pull-off
| ~   vibrato
| +   harmonic
| x   Mute note
| b   Bend
| pb  Pre-bend
| br  Bend release
| pbr Pre-bend release
| brb Bend release bend

************************************
Tap to rate this tab
# A B C D E F G H I J K L M N O P Q R S T U V W X Y Z